>
 >
Austin, We Have A Problem

Austin, We Have A Problem Guitar Tabs

Fall Out Boy - Austin, We Have A Problem chords, tabs, tablatures, lyrics

Guitar lessons | Add/correct | Request | Top 50 tabs Artists:  A B C D E F G H I J K L M N O P Q R S T U V W X Y Z 0-9

Austin, We Have A Problem Guitar Tabs – Fall Out Boy

CD, Sheet music, Poster

Do you like Austin, We Have A Problem? Share with your friends now
Tabs

Tuning: E Standard (EADGBE)

Intro riff

e|-----------------------0---0-----x--x---------------------------------------|
B|-----------------------1---1-----x--x---------------------------------------|
G|-----------------------0---0-----x--x---------------------------------------|
D|---3----3----3---------2---2-----x--x---------------------------------------|
A|---3----3----3---------3---3-----x--x---------------------------------------|
E|---1----0----1-------------------x--x---------------------------------------|




Verse chords played on acoustic guitar. Listen to the song for the rhythm.
     Am      G      Em     G    D  Dsus4 C   F
e|-----------3------0------3-|--2---3----0---1-------------------------------|
B|----1------3------0------3-|--3---3----1---1-------------------------------|
G|----2------0------0------0-|--2---2----0---2-------------------------------|
D|----2------0------2------0-|--0---0----2---3-------------------------------|
A|----0------2------2------2-|-----------3---3-------------------------------|
E|-----------3------0------3-|---------------1-------------------------------|

   Small lick played over the verse on acoustic and then on electric. Listen to the song 
for the rhythm and when it comes in.
e|---------------------------------------------------------------------------|
B|---------------------------------------------------------------------------|
G|-------12h14---14--14----12-12---------------------------------------------|
D|-------14-14---14--14----14-14---------------------------------------------|
A|---------------------------------------------------------------------------|
E|---------------------------------------------------------------------------|
           Chorus
e|--------------------0---------------------2---------------------------------|
B|--------------------1---------------------3---------------------------------|
G|--------------------0---------------------2---------------------------------|
D|--3----3----3-------2------5----5---------0---------------------------------|
A|--3----3----3-------3------5----5-------------------------------------------|
E|--1----0----1--------------3----3-------------------------------------------|

Octaves part during the "doo doo doo" section of chorus (listen to song for rhythm).
e|---------------------------------------------------------------------------|
B|---------------------------------------------------------------------------|
G|-----9-----9-------5----5-----9-------9-------5------5---------------------|
D|-----x-----x-------x----x-----x-------x-------x------x---------------------|
A|-----7-----7-------3----3-----7-------7-------3------3---------------------|
E|---------------------------------------------------------------------------|

e|---------------------------------------------------------------------------|
B|---------------------------------------------------------------------------|
G|-----7-------7--------7--------7---------4---------------------------------|
D|-----x-------x--------x--------x---------x---------------------------------|
A|-----5-------5--------5--------5---------2---------------------------------|
E|---------------------------------------------------------------------------|
          Riff played during second chorus
e|----------------------------------------------------------------------------|
B|----------------------------------------------------------------------------|
G|----------------------------------------------------------------------------|
D|----12-----14---------------------------------------12b13-------------------|
A|------------------15------12------------------15-------------15-------------|
E|----------------------------------------12----------------------------------|
       Second "doo doo doo" part (Include octaves from first time)
e|---------------------------------------------------------------------------|
B|---------------------------------------------------------------------------|
G|---------------------------------------------------------------------------|
D|-------12------14----------------------------------------------------------|
A|------------------------15-------------------------------------------------|
E|---------------------------------------------------------------------------|
               Bridge
e|---------------------------------------------------------------------------|
B|---------------------------------------------------------------------------|
G|-----4-5-----------4------------4-5---------7---5--------------------------|
D|-----x-x-----------x------------x-x---------x---x----7---------------------|
A|-----2-3-----------2------------2-3---------5---3----x---------------------|
E|-----------------------------------------------------5---------------------|


e|---------------------------------------------------------------------------|
B|---------------------------------------------------------------------------|
G|----4---5----------7------------9-------10----9-------5--------------------|
D|----x---x----------x------------x-------x-----x-------x--------------------|
A|----2---3----------5------------7-------8-----7-------3--------------------|
E|---------------------------------------------------------------------------|
     After those octaves are played, the acoustic guitar can continually strum the C 
major chord from before while the electric guitar plays these four octaves.
e|---------------------------------------------------------------------------|
B|---------------------------------------------------------------------------|
G|----5------------7--------------11------------10---------------------------|
D|----x------------x---------------x-------------x---------------------------|
A|----3------------5---------------9-------------8---------------------------|
E|---------------------------------------------------------------------------|


Finally, the chorus is repeated, and the guitars should on G
e|---------------------------------------------------------------------------|
B|---------------------------------------------------------------------------|
G|---------------------------------------------------------------------------|
D|-------5-------------------------------------------------------------------|
A|-------5-------------------------------------------------------------------|
E|-------3-------------------------------------------------------------------|

Thanks for checking my tab out.
Any feedback is kindly appreciated.
Happy Jamming.

************************************

| /   slide up
| \   slide down
| h   hammer-on
| p   pull-off
| ~   vibrato
| +   harmonic
| x   Mute note
| b   Bend
| pb  Pre-bend
| br  Bend release
| pbr Pre-bend release
| brb Bend release bend

************************************





Comments


Popular Fall Out Boy tabs & chords
Americas Suitehearts Bass Tabs
Chichago Is So Two Years Ago Bass Tabs
Start Today Bass Tabs
This Aint A Scene Its An Arms Race 2 Bass Tabs
From Now On We Are Enemies Chords
Thnks Fr Th Mmrs 8 Chords
Lake Effect Kid 1 Tabs
The Pros And Cons Of Breathing 1 Tabs
Thnks Fr Th Mmrs Tabs
Honorable Mention Ukulele


Song lyrics



↑ Back to top | Tablatures and chords are parodies/interpretations of the original songs. You may use it for private study, scholarship, research or language learning purposes only
© 2014 AZChords.com Contact us | Privacy policy | DMCA | Add/correct tabs | Request tabs | Top 50 tabs