» » »

America's Suitehearts Chords (ver.4)

Artists:  A B C D E F G H I J K L M N O P Q R S T U V W X Y Z # 

America's Suitehearts Chords (ver.4)

Fall Out Boy
Rating:
0/5 (0 votes)
Tabs too difficult? Try these video lessons and learn fast.
                I'm leaving it up to you to figure out strumming

Into
e--5-----5-----5-----5---------|
B--5-----5-----5-----5---------|
G--6-----7-----6-----7---------|
D--7-----7-----7-----7---------|
A--7-----7-----7-----7---------|
E--5-----5-----5-----5---------|

Verse
 You could have knocked me out with a feather
e---------------------------------------------------------|
B------------------------------------7--------------------|
G---------------7--------------------6--------------------|
D---------------7--------------------7--------------------|
A---------------5--------------------4--------------------|
E---------------------------------------------------------|

 I know you've heard this all before but we're just hell's neighbors
e--------------2-----------------------------------------------------|
B--------------3------------------------------------7----------------|
G--------------4------------------------------------6----------------|
D--------------4------------------------------------7----------------|
A--------------2------------------------------------4----------------|
E--------------------------------------------------------------------|

  Why why..... revolve..... dreams...... over the streets
e---------------------------2---------------------------------------|
B----------------7----------3------------7--------------------------|
G-7--------------6----------4------------6--------------------------|
D-7--------------7----------4------------7--------------------------|
A-5--------------4----------2------------4--------------------------|
E-------------------------------------------------------------------|

  But I don't know much about classic cars
e-------2-----5----3------------------2--------------------------------|
B-------3-----5----3------------------3--------------------------------|
G-------4-----6----4------------------4--------------------------------|
D-------4-----7----5------------------4--------------------------------|
A-------2-----7----5------------------2--------------------------------|
E-------------5----3---------------------------------------------------|

        But I've got a lot of.....  coke
e-------2---5----3------------------2--------------------------------|
B-------3---5----3------------------3--------------------------------|
G-------4---6----4------------------4--------------------------------|
D-------4---7----5------------------4--------------------------------|
A-------2---7----5------------------2--------------------------------|
E-----------5----3---------------------------------------------------|

        Down set one hut hut hike media blitz
e-------2----5---3--------------------------------------------------|
B-------3----5---3--------------------------------------------------|
G-------4----6---4--------------------------------------------------|
D-------4----7---5--------------------------------------------------|
A-------2----7---5--------------------------------------------------|
E------------5---3--------------------------------------------------|

  Lets hear it... America's Suithearts I must confess
e-3--------------------------------------2---------------------------|
B-3--------------------------------------3---------------------------|
G-4-------------------------7------------4---------------------------|
D-5-------------------------7------------4---------------------------|
A-5-------------------------5------------2---------------------------|
E-3------------------------------------------------------------------|

  I'm in love with my own sins     lets hear it for America's suithearts
e--------3----------------2----5--------3-----------5----------------|
B--------3----------------3----5--------3-----------5----------------|
G--------4----------------4----6--------4-----------6---------7------|
D--------5----------------4----7--------5-----------7---------7------|
A--------5----------------2----7--------5-----------7---------5------|
E--------3---------------------5--------3-----------5----------------|

   I must confess I'm in love with my own sins
e------------2-----------3----------------2----5---3---5----------------|
B------------3-----------3----------------3----5---3---5----------------|
G------------4-----------4----------------4----6---4---6----------------|
D------------4-----------5----------------4----7---5---7----------------|
A------------2-----------5----------------2----7---5---7----------------|
E------------------------3---------------------5---3---5----------------|

You(time)      Bow(told)      Pretend(yet)         Legend(loose)
e------------------------------------2------------------------------------|
B-----------------7------------------3-------------------7----------------|
G--7--------------6------------------4-------------------6----------------|
D--7--------------7------------------4-------------------7----------------|
A--5--------------4------------------2-------------------4----------------|
E-------------------------------------------------------------------------|


      I don't know much about classic cars
e-------2-----5----3------------------2--------------------------------|
B-------3-----5----3------------------3--------------------------------|
G-------4-----6----4------------------4--------------------------------|
D-------4-----7----5------------------4--------------------------------|
A-------2-----7----5------------------2--------------------------------|
E-------------5----3---------------------------------------------------|

        But I've got a lot of.....  coke
e-------2---5----3------------------2--------------------------------|
B-------3---5----3------------------3--------------------------------|
G-------4---6----4------------------4--------------------------------|
D-------4---7----5------------------4--------------------------------|
A-------2---7----5------------------2--------------------------------|
E-----------5----3---------------------------------------------------|

        Down set one hut hut hike media blitz
e-------2----5---3--------------------------------------------------|
B-------3----5---3--------------------------------------------------|
G-------4----6---4--------------------------------------------------|
D-------4----7---5--------------------------------------------------|
A-------2----7---5--------------------------------------------------|
E------------5---3--------------------------------------------------|

  Lets hear it... America's Suithearts I must confess
e-3--------------------------------------2---------------------------|
B-3--------------------------------------3---------------------------|
G-4-------------------------7------------4---------------------------|
D-5-------------------------7------------4---------------------------|
A-5-------------------------5------------2---------------------------|
E-3------------------------------------------------------------------|

  I'm in love with my own sins     lets hear it for America's suithearts
e--------3----------------2----5--------3-----------5----------------|
B--------3----------------3----5--------3-----------5----------------|
G--------4----------------4----6--------4-----------6---------7------|
D--------5----------------4----7--------5-----------7---------7------|
A--------5----------------2----7--------5-----------7---------5------|
E--------3---------------------5--------3-----------5----------------|

   I must confess I'm in love with my own sins
e------------2-----------3----------------2----5---3---5----------------|
B------------3-----------3----------------3----5---3---5----------------|
G------------4-----------4----------------4----6---4---6----------------|
D------------4-----------5----------------4----7---5---7----------------|
A------------2-----------5----------------2----7---5---7----------------|
E------------------------3---------------------5---3---5----------------|

after "sins" it switches back to the intro until.....

  Lets hear it... America's Suithearts I must confess
e----------------------------------------2---------------------------|
B----------------------------------------3---------------------------|
G---------------------------7------------4---------------------------|
D---------------------------7------------4---------------------------|
A---------------------------5------------2---------------------------|
E--------------------------------------------------------------------|

  I'm in love with my own sins     lets hear it for America's suithearts
e--------3----------------2----5--------3-----------5----------------|
B--------3----------------3----5--------3-----------5----------------|
G--------4----------------4----6--------4-----------6---------7------|
D--------5----------------4----7--------5-----------7---------7------|
A--------5----------------2----7--------5-----------7---------5------|
E--------3---------------------5--------3-----------5----------------|

   I must confess I'm in love with my own sins
e------------2-----------3----------------2----5---3---5----------------|
B------------3-----------3----------------3----5---3---5----------------|
G------------4-----------4----------------4----6---4---6----------------|
D------------4-----------5----------------4----7---5---7----------------|
A------------2-----------5----------------2----7---5---7----------------|
E------------------------3---------------------5---3---5----------------|

Chorus is played for the next part with the individual notes being
A-----5-slide-7

end with
e-------|
B-------|
G---7---|
D---5---|
A---5---|
E-------|

The end
            
Tabs too difficult? Try these video lessons and learn fast.


comments powered by Disqus
↑ Back to top | Tablatures and chords are parodies/interpretations of the original songs. You may use it for private study, scholarship, research or language learning purposes only