» » »

Fall Out Boy, Alpha Dog Tabs (ver.1)

Artists:  A B C D E F G H I J K L M N O P Q R S T U V W X Y Z # 

Alpha Dog Tabs (ver.1)

Fall Out Boy Tabs
Rating:
4/5 (5 votes)
Alpha Dog lessons Tabs too difficult? Try these video lessons and learn fast
                This song is awesome. It's REALLY fun to play. It's also one of my favorite songs.

Intro
E||--------------------------------------------------|
B||----66-88-1010----66-88-1010---66-88-1010---------|
G||-77-------------55-----------33-------------------|
D||--------------------------------------------------|
A||--------------------------------------------------|
D||--------------------------------------------------|

E||---------------------------------|
B||-10-10-10-11-10-11-10-11-10-6----|
G||---------------------------------|
D||---------------------------------|
A||---------------------------------|
D||---------------------------------|

E||--------------------------------------------------|
B||----66-88-1010----66-88-1010---66-88-1010------10-|
G||-77-------------55-----------33-------------------|
D||--------------------------------------------------|
A||--------------------------------------------------|
D||--------------------------------------------------|

Verse:
E||---------------------8--6-5-3-------------------------------------|
B||---6----3-5-6----5--------------6----3-5-6----8---10---1010-8-6-5-|
G||------------------------------------------------------------------|
D||------------------------------------------------------------------|
A||------------------------------------------------------------------|
D||------------------------------------------------------------------| 4x

Pre-Chorus: (No Guitar here but you could play this in palm mute)
E||--------------------------------------------------|
B||--------------------------------------------------|
G||--------------------------------------------------|
D||--------------------------------------------------|
A||--------------------------------------------------|
D||--12-1212--10--1010--8-88--8-88---12-1212--10-----| 
      .  . .  .  ..  . ..  . ..    .  . .  .

Chorus:
E||x-x-x-x-|   |-------------------------------------------------------|
B||x-x-x-x-|   |-------------------------------------------------------|
G||x-x-x-x-|   |-------------------------------------------------------|
D||x-x-x-x-|   |-1212121212121212-1010101010101010--77888888-88888888--|
A||x-x-x-x-|   |-1212121212121212-1010101010101010--77888888-88888888--|
D||x-x-x-x-|1x|1212121212121212-1010101010101010--77888888-88888888--| 4x

1st and 3rd ending of Chorus (Palm-muted) [Repeat Each Chorus]
E||----------------------------------------------------------|
B||----------------------------------------------------------|
G||----------------------------------------------------------|
D||--7--5--3--2--0-------------------------------------------|
A||--7--5--3--2--0-------------------------------------------|
D||--7--5--3--2--0-------------------------------------------|

Intro:
E||--------------------------------------------------|
B||----66-88-1010----66-88-1010---66-88-1010---------|
G||-77-------------55-----------33-------------------|
D||--------------------------------------------------|
A||--------------------------------------------------|
E||--------------------------------------------------|

E||---------------------------|
B||-10-10-10-10-10-11-10-6----|
G||---------------------------|
D||---------------------------|
A||---------------------------|
D||---------------------------|


E||--------------------------------------------------|
B||----66-88-1010----66-88-1010---66-88-1010------10-|
G||-77-------------55-----------33-------------------|
D||--------------------------------------------------|
A||--------------------------------------------------|
D||--------------------------------------------------|

Verse:
E||---------------------8--6-5-3-------------------------------------|
B||---6----3-5-6----5--------------6----3-5-6----8---10---1010-8-6-5-|
G||------------------------------------------------------------------|
D||------------------------------------------------------------------|
A||------------------------------------------------------------------|
D||------------------------------------------------------------------|2x

Pre-Chorus: (No Guitar here but you could play this in palm mute)
E||--------------------------------------------------|
B||--------------------------------------------------|
G||--------------------------------------------------|
D||--------------------------------------------------|
A||--------------------------------------------------|
D||--12-1212--10--1010--8-88--8-88---12-1212--8------| 
      .  . .  .  ..  . ..  . ..    .  . .  .

Chorus:
E||x-x-x-x-|   |-------------------------------------------------------|
B||x-x-x-x-|   |-------------------------------------------------------|
G||x-x-x-x-|   |-------------------------------------------------------|
D||x-x-x-x-|   |-1212121212121212-1010101010101010--77888888-88888888--|
A||x-x-x-x-|   |-1212121212121212-1010101010101010--77888888-88888888--|
D||x-x-x-x-|1x |1212121212121212-1010101010101010--77888888-88888888--| 4x

Acoustic-Part..
I just play this:
E||---------------------------------------------------------|
B||---------------------------------------------------------|
G||---------------------------------------------------------|
D||-12-1212-12—10-1010-10--8-88-8-8-88-8-------------------|
A||-12-1212-12--10-1010-10--8-88-8-8-88-8-------------------|
D||-12-1212-12--10-1010-10--8-88-8-8-88-8-------------------|4x

Chorus:
E||x-x-x-x-|   |-------------------------------------------------------|
B||x-x-x-x-|   |-------------------------------------------------------|
G||x-x-x-x-|   |-------------------------------------------------------|
D||x-x-x-x-|   |-1212121212121212-1010101010101010--77888888-88888888--|
A||x-x-x-x-|   |-1212121212121212-1010101010101010--77888888-88888888--|
D||x-x-x-x-|1x |-1212121212121212-1010101010101010-77888888-88888888--| 4x

Outro :
E||--------------------------------------------------|
B||----66-88-1010----66-88-1010---66-88-1010---------|
G||-77-------------55-----------33-------------------|
D||--------------------------------------------------|
A||--------------------------------------------------|
D||--------------------------------------------------|

E||---------------------------|
B||-10-10-10-10-10-11-10-6----|
G||---------------------------|
D||---------------------------|
A||---------------------------|
D||---------------------------|

E||--------------------------------------------------|
B||----66-88-1010----66-88-1010---66-88-1010------10-|
G||-77-------------55-----------33-------------------|
D||--------------------------------------------------|
A||--------------------------------------------------|
D||--------------------------------------------------|
            
Submit corrections

comments powered by Disqus
↑ Back to top | Fall Out Boy Tabs for Alpha Dog. Lyrics for acoustic guitar and electric guitar. Tablatures and chords are parodies/interpretations of the original songs. You may use it for private study, scholarship, research or language learning purposes only