» » »

Alpha Dog Bass tabs (ver.1)

Artists:  A B C D E F G H I J K L M N O P Q R S T U V W X Y Z # 

Alpha Dog Bass tabs (ver.1)

Fall Out Boy
Rating:
0/5 (0 votes)

Tabs too difficult? Try these video lessons and learn fast.
                Tuning: Drop D (D,A,D,G)

Here it is...

-Intro 1-
G|---------------------------------------|
D|---------------------------------------|
A|-5~~~-3~~~-----------5~~~-3~~~---------|
D|-----------8~~~-7~~~-----------8~~~-7--|

-Verse 1-
G|---------------------------------------------------------------------------|
D|--------------57/8~75------------------------------57/8~75-----------------|
A|-5~-0h35~-03~------------------3------5~-0h35~-03~-------------------------|
D|---------------------8~-7875300-07875---------------------8~-78753-0000000-|

G|-----------------------------------------------------------------------------|
D|--------------57/8~75-------------------------------57/8~75------------------|
A|-5~-0h35~-03~--------------------------5~-0h35~-03~--------------------------|
D|---------------------8~-78753-00000000---------------------8~-78753-00000000-|

-Pre.chorus 1-
G|------------------------------------|
D|------------------------------------|
A|------810-10~-8-8~-88-8~----810-10~-|
D|-7-7~~------------------7-7~--------|

-Chorus 1-
G|-------------------------------------------------------------------|
D|-------------------------------------------------------------------|
A|----------3333330~-1111111111110------------3333330~-1111111111111-|
D|-00000000-----------------------53-00000000------------------------|

G|-------------------------------------------------------------------|
D|-------------------------------------------------------------------|
A|----------3333330~-1111111111110------------3333330~-1111111111111-|
D|-00000000-----------------------53-00000000------------------------|

-Intro 2-
G|---------------------------------------|
D|---------------------------------------|
A|-5~~~-3~~~-----------5~~~-3~~~---------|
D|-----------8~~~-7~~~-----------8~~~-7--|

-Verse 2-
G|-----------------------------------------------------------------------------|
D|--------------57/8~75-------------------------------57/8~75------------------|
A|-5~-0h35~-03~--------------------------5~-0h35~-03~--------------------------|
D|---------------------8~-78753-00000000---------------------8~-78753-00000000-|

-Pre.chorus 2-
G|------------------------------------|
D|------------------------------------|
A|------810-10~-8-8~-88-8~----810-10~-|
D|-7-7~~------------------7-7~--------|

-Chorus 2-
G|-------------------------------------------------------------------|
D|-------------------------------------------------------------------|
A|----------3333330~-1111111111110------------3333330~-1111111111111-|
D|-00000000-----------------------53-00000000------------------------|

G|-------------------------------------------------------------------|
D|-------------------------------------------------------------------|
A|----------3333330~-1111111111110------------3333330~-1111111111111-|
D|-00000000-----------------------53-00000000------------------------|

-Bridge 1-
G|-------------------------------------------------------------|
D|---------------5-------------------------------5-------------|
A|-5~----5~-53~-3-3-31~-11~-1~-3~--5~----5~-53~-3-3-31~-11~-1~-|
D|----5~------------------------------5~-----------------------|

-Chorus 3-
G|-------------------------------------------------------------------|
D|-------------------------------------------------------------------|
A|----------3333330~-1111111111110------------3333330~-1111111111111-|
D|-00000000-----------------------53-00000000------------------------|

G|-------------------------------------------------------------------|
D|-------------------------------------------------------------------|
A|----------3333330~-1111111111110------------3333330~-1111111111111-|
D|-00000000-----------------------53-00000000------------------------|

-Outro 1/Intro 3-
G|---------------------------------------|
D|---------------------------------------|
A|-5~~~-3~~~-----------5~~~-3~~~---------|
D|-----------8~~~-7~~~-----------8~~~-7--|

Enjoy.
            
Tabs too difficult? Try these video lessons and learn fast.


comments powered by Disqus
↑ Back to top | Tablatures and chords are parodies/interpretations of the original songs. You may use it for private study, scholarship, research or language learning purposes only