» » »

Fall Out Boy, 7 Minutes In Heaven (Atavan Halen) Tabs (ver.3)

Artists:  A B C D E F G H I J K L M N O P Q R S T U V W X Y Z # 

7 Minutes In Heaven (Atavan Halen) Tabs (ver.3)

Fall Out Boy Tabs
Rating:
0/5 (0 votes)
7 Minutes In Heaven (Atavan Halen) lessons Tabs too difficult? Try these video lessons and learn fast
                Fall Out Boy - 7 Minutes in Heaven (Atavan Halen)

this is a great song, and fun to play. this was hard to tab so i'm not sure if it's
100% correct. both guitars are tabbed together and are according to beat. everything's
in order so read through the whole tab. drop d tuning.

Key:

 / - slide up
 \ - slide down
 h - hammer-on
 p - pull-off
 . - palm-mute
 x - left hand mute
 ~ - let it ring

---------------------------------------------------------------------------------
Intro

   1 + 2 + 3 + 4 +   1 + 2 + 3 + 4 +   1 + 2 + 3 + 4 +   1 + 2 + 3 + 4 +
E|-----------------|-----------------|-----------------|-----------------|
B|-----------------|-----------------|-----------------|-----------------|
G|-9-----8-----6---|---9-----8---6---|-9-----8-----6---|---9-----8---6--/|
D|-9-9-9-9-9-9-9-9-|-9-9-9-9-9-9-9-9-|-9-9-9-9-9-9-9-9-|-9-9-9-9-9-9-9-9/|
A|-----------------|-----------------|-----------------|-----------------|
D|-----------------|-----------------|-----------------|-----------------|
 | . . . . . . . .   . . . . . . . .   . . . . . . . .   . . . . . . . .
 |
 | 1 + 2 + 3 + 4 +   1 + 2 + 3 + 4 +   1 + 2 + 3 + 4 +   1 + 2 + 3 + 4 +
E|-----------------|-----------------|-----------------|-----------------|
B|-----------------|-----------------|-----------------|-----------------|
G|-----------------|-----------------|-----------------|-----------------|
D|-----------------|-----------------|-----------------|-----------------|
A|-----------------|-----------------|-----------------|-----------------|
D|-----------------|-----------------|-----------------|-----------------|



   1 + 2 + 3 + 4 +   1 + 2 + 3 + 4 +   1 + 2 + 3 + 4 +   1 + 2 + 3 + 4 +
E|-----------------|-----------------|-----------------|-----------------|
B|-----------------|-----------------|-----------------|-----------------|
G|11111111---8-8-8-|-6-6-6-6---4-4-4-|11111111-8-8-8-8-|-6-6-6-8-6~------|
D|-x-x-x-x---x-x-x-|-x-x-x-x---x-x-x-|-x-x-x-x-x-x-x-x-|-x-x-x-x-x~------|
A|-9-9-9-9---6-6-6-|-4-4-4-4---2-2-2-|-9-9-9-9-6-6-6-6-|-4-4-4-6-4~------|
D|-----------------|-----------------|-----------------|-----------------|
 |
 |
 | 1 + 2 + 3 + 4 +   1 + 2 + 3 + 4 +   1 + 2 + 3 + 4 +   1 + 2 + 3 + 4 +
E|-----------------|-----------------|-----------------|-----------------|
B|-----------------|-----------------|-----------------|-----------------|
G|-----------------|-----------4~----|-----------------|-----------------|
D|-6-6-6-6---2~----|-4-4-4-4---4~----|-6-6-6-6-2-2-2-2-|-4-4-4-4-4-4-4-4-|
A|-6-6-6-6---2~----|-4-4-4-4---2~----|-6-6-6-6-2-2-2-2-|-4-4-4-4-4-4-4-4-|
D|-6-6-6-6---2~----|-4-4-4-4---------|-6-6-6-6-2-2-2-2-|-4-4-4-4-4-4-4-4-|



   1 + 2 + 3 + 4 +   1 + 2 + 3 + 4 +   1 + 2 + 3 + 4 +   1 + 2 + 3 + 4 +
E|-----------------|-----------------|-----------------|-----------------|
B|-----------------|-----------------|-----------------|-----------------|
G|11111111---8-8-8-|-6-6-6-6---4-4-4-|11111111-8-8-8-8-|-6-6-6-8-6~------|
D|-x-x-x-x---x-x-x-|-x-x-x-x---x-x-x-|-x-x-x-x-x-x-x-x-|-x-x-x-x-x~------|
A|-9-9-9-9---6-6-6-|-4-4-4-4---2-2-2-|-9-9-9-9-6-6-6-6-|-4-4-4-6-4~------|
D|-----------------|-----------------|-----------------|-----------------|
 |
 |
 | 1 + 2 + 3 + 4 +   1 + 2 + 3 + 4 +   1 + 2 + 3 + 4 +   1 + 2 + 3 + 4 +
E|-----------------|-----------------|-----------------|-----------------|
B|-----------------|-----------------|-----------------|-----------------|
G|-----------------|-----------4~----|-----------------|-----------------|
D|-6-6-6-6---2~----|-4-4-4-4---4~----|-6-6-6-6-2-2-2-2-|-4-4-4-4-4-4-4-4-|
A|-6-6-6-6---2~----|-4-4-4-4---2~----|-6-6-6-6-2-2-2-2-|-4-4-4-4-4-4-4-4-|
D|-6-6-6-6---2~----|-4-4-4-4---------|-6-6-6-6-2-2-2-2-|-4-4-4-4-4-4-4-4-|



Verse

   1 + 2 + 3 + 4 +   1 + 2 + 3 + 4 +   1 + 2 + 3 + 4 +   1 + 2 + 3 + 4 +
E|-----------------|-----------------|-----------------|-----------------|
B|-----------------|-----------------|-----------------|-----------------|
G|-----------------|-----------------|-9-----8-----6---|---9-9---8---6---|
D|-----------------|-----------------|-9-----9-----9---|---9-9---9---9---|
A|-----------------|-----------------|-----------------|-----------------|
D|-----------------|-----------------|-----------------|-----------------|
 |
 |
 | 1 + 2 + 3 + 4 +   1 + 2 + 3 + 4 +   1 + 2 + 3 + 4 +   1 + 2 + 3 + 4 +
E|-----------------|-----------------|-----------------|-----------------|
B|-----------------|-----------------|-----5-------5---|-----5-------5---|
G|-----8-------8---|-----8-------8---|-6-6-6-6-6-6-6-6-|-6-6-6-6-6-6-6-6-|
D|-6-6-6-6-6-6-6-6-|-6-6-6-6-6-6-6-6-|-6-6-6-6-6-6-6-6-|-6-6-6-6-6-6-6-6-|
A|-6-6-6-6-6-6-6-6-|-6-6-6-6-6-6-6-6-|-4-4-4-4-4-4-4-4-|-4-4-4-4-4-4-4-4-|
D|-6-6-6-6-6-6-6-6-|-6-6-6-6-6-6-6-6-|-----------------|-----------------|
   . .   . . .   .   . .   . . .   .   . .   . . .   .   . .   . . .   .



   1 + 2 + 3 + 4 +   1 + 2 + 3 + 4 +   1 + 2 + 3 + 4 +   1 + 2 + 3 + 4 +
E|-----------------|-----------------|-----------------|-----------------|
B|-----------------|-----------------|-----------------|-----------------|
G|-----------------|-----------------|-9-----8-----6---|---9-9---8---6---|
D|-----------------|-----------------|-9-----9-----9---|---9-9---9---9---|
A|-----------------|-----------------|-----------------|-----------------|
D|-----------------|-----------------|-----------------|-----------------|
 |
 |
 | 1 + 2 + 3 + 4 +   1 + 2 + 3 + 4 +   1 + 2 + 3 + 4 +   1 + 2 + 3 + 4 +
E|-----------------|-----------------|-----------------|-----------------|
B|-----5-------5---|-----5-------5---|-----------------|-----------------|
G|-----4-------4---|-----4-------4---|-----4-------4---|-----4-------3---|
D|-2-2-2-2-2-2-2-2-|-2-2-2-2-2-2-2-2-|-4-4-4-4-4-4-4-4-|-4-4-4-4-4-4-4-4-|
A|-2-2-2-2-2-2-2-2-|-2-2-2-2-2-2-2-2-|-2-2-2-2-2-2-2-2-|-2-2-2-2-1-1-1-1-|
D|-2-2-2-2-2-2-2-2-|-2-2-2-2-2-2-2-2-|-----------------|-----------------|
   . .   . . .   .   . .   . . .   .   . .   . . .   .   . .   . . .   .



   1 + 2 + 3 + 4 +   1 + 2 + 3 + 4 +   1 + 2 + 3 + 4 +   1 + 2 + 3 + 4 +
E|-----------------|-----------------|-----------------|-----------------|
B|-----------------|-----------------|-----------------|-----------------|
G|-----------------|-----------------|-9-----8-----6---|---9-9---8---6---|
D|-----------------|-----------------|-9-----9-----9---|---9-9---9---9---|
A|-----------------|-----------------|-----------------|-----------------|
D|-----------------|-----------------|-----------------|-----------------|
 |
 |
 | 1 + 2 + 3 + 4 +   1 + 2 + 3 + 4 +   1 + 2 + 3 + 4 +   1 + 2 + 3 + 4 +
E|-----------------|-----------------|-----------------|-----------------|
B|-----------------|-----------------|-----5-------5---|-----5-------5---|
G|-----8-------8---|-----8-------8---|-6-6-6-6-6-6-6-6-|-6-6-6-6-6-6-6-6-|
D|-6-6-6-6-6-6-6-6-|-6-6-6-6-6-6-6-6-|-6-6-6-6-6-6-6-6-|-6-6-6-6-6-6-6-6-|
A|-6-6-6-6-6-6-6-6-|-6-6-6-6-6-6-6-6-|-4-4-4-4-4-4-4-4-|-4-4-4-4-4-4-4-4-|
D|-6-6-6-6-6-6-6-6-|-6-6-6-6-6-6-6-6-|-----------------|-----------------|
   . .   . . .   .   . .   . . .   .   . .   . . .   .   . .   . . .   .



   1 + 2 + 3 + 4 +   1 + 2 + 3 + 4 +   1 + 2 + 3 + 4 +   1 + 2 + 3 + 4 +
E|-----------------|-----------------|-----------------|-----------------|
B|-----------------|-----------------|-----------------|-----------------|
G|-----------------|-----------------|-9-----8-----6---|---9-9---8---6---|
D|-----------------|-----------------|-9-----9-----9---|---9-9---9---9---|
A|-----------------|-----------------|-----------------|-----------------|
D|-----------------|-----------------|-----------------|-----------------|
 |
 |
 | 1 + 2 + 3 + 4 +   1 + 2 + 3 + 4 +   1 + 2 + 3 + 4 +   1 + 2 + 3 + 4 +
E|-----------------|-----------------|-----------------|-----------------|
B|-----5-------5---|-----5-------5---|-----5-------5---|-----5---5-5-5-5-|
G|-----4-------4---|-----4-------4---|-----4-------4---|-----4---4-4-4-4-|
D|-2-2-2-2-2-2-2-2-|-2-2-2-2-2-2-2-2-|-2-2-2-2-2-2-2-2-|-2-2-2-2-2-2-2-2-|
A|-2-2-2-2-2-2-2-2-|-2-2-2-2-2-2-2-2-|-2-2-2-2-2-2-2-2-|-2-2-2-2-2-2-2-2-|
D|-2-2-2-2-2-2-2-2-|-2-2-2-2-2-2-2-2-|-2-2-2-2-2-2-2-2-|-2-2-2-2-2-2-2-2-|
   . .   . . .   .   . .   . . .   .   . .   . . .   .   . .   .



Pre-Chorus

   1 + 2 + 3 + 4 +   1 + 2 + 3 + 4 +   1 + 2 + 3 + 4 +   1 + 2 + 3 + 4 +
E|-----------------|-----------------|-----------------|-----------------|
B|-----------------|-----------------|-----------------|-----------------|
G|-----------------|-----------4~----|-----------------|-----------------|
D|-6---6-----2~----|-4---4-----4~----|-6-6-6-6-2-2-2-2-|-4-4-4-4-4-4-4-4-|
A|-6---6-----2~----|-4---4-----2~----|-6-6-6-6-2-2-2-2-|-4-4-4-4-4-4-4-4-|
D|-6---6-----2~----|-4---4-----------|-6-6-6-6-2-2-2-2-|-4-4-4-4-4-4-4-4-|
 |
 |
 | 1 + 2 + 3 + 4 +   1 + 2 + 3 + 4 +   1 + 2 + 3 + 4 +   1 + 2 + 3 + 4 +
E|-----------------|-----------------|-----------------|-----------------|
B|-----------------|-----------------|-----------------|-----------------|
G|-----------------|-----------4~----|-----------------|-----------------|
D|-6---6-----2~----|-4---4-----4~----|-6-6-6-6-2-2-2-2-|-4-4-4-4-4-4-4-4-|
A|-6---6-----2~----|-4---4-----2~----|-6-6-6-6-2-2-2-2-|-4-4-4-4-4-4-4-4-|
D|-6---6-----2~----|-4---4-----------|-6-6-6-6-2-2-2-2-|-4-4-4-4-4-4-4-4-|



   1 + 2 + 3 + 4 +   1 + 2 + 3 + 4 +   1 + 2 + 3 + 4 +   1 + 2 + 3 + 4 +
E|-----------------|-----------------|-----------------|-----------------|
B|-----------------|-----------------|-----------------|-----------------|
G|-----------------|-----------4~----|-----------------|-----------------|
D|-6---6-----2~----|-4---4-----4~----|-6-6-6-6-2-2-2-2-|-4-4-4-4-4-------|
A|-6---6-----2~----|-4---4-----2~----|-6-6-6-6-2-2-2-2-|-4-4-4-4-4-------|
D|-6---6-----2~----|-4---4-----------|-6-6-6-6-2-2-2-2-|-4-4-4-4-4-------|
 |                                                         . . . 
 |
 | 1 + 2 + 3 + 4 +   1 + 2 + 3 + 4 +   1 + 2 + 3 + 4 +   1 + 2 + 3 + 4 +
E|-----------------|-----------------|-----------------|-----------------|
B|-----------------|-----------------|-----------------|-----------------|
G|-----------------|-----------4~----|-----------------|-----------------|
D|-6---6-----2~----|-4---4-----4~----|-6-6-6-6-2-2-2-2-|-4-4-4-4-4-------|
A|-6---6-----2~----|-4---4-----2~----|-6-6-6-6-2-2-2-2-|-4-4-4-4-4-------|
D|-6---6-----2~----|-4---4-----------|-6-6-6-6-2-2-2-2-|-4-4-4-4-4-------|
                                                           . . . 


Chorus

   1 + 2 + 3 + 4 +   1 + 2 + 3 + 4 +   1 + 2 + 3 + 4 +   1 + 2 + 3 + 4 +
E|-----------------|-----------------|-----------------|-----------------|
B|-----------------|-----------------|-----------------|-----------------|
G|-4---4---x-x-6---|-8---8---x-x-6---|-4---4---x-x-6---|-8-8-8-8--11~----|
D|-x---x---x-x-x---|-x---x---x-x-x---|-x---x---x-x-x---|-x-x-x-x---x~----|
A|-2---2---x-x-4---|-6---6---x-x-4---|-2---2---x-x-4---|-6-6-6-6---9~----|
D|-----------------|-----------------|-----------------|-----------------|
 |
 |
 | 1 + 2 + 3 + 4 +   1 + 2 + 3 + 4 +   1 + 2 + 3 + 4 +   1 + 2 + 3 + 4 +
E|-----------------|-----------------|-----------------|-----------------|
B|-----------------|-----------------|-----------------|-----------------|
G|-4---4---x-x-----|-----------------|-----------------|-----------------|
D|-4---4---x-x-4---|-2---2---x-x-4---|-6---6---x-x-4---|-2---x-x-x-4~----|
A|-2---2---x-x-4---|-2---2---x-x-4---|-6---6---x-x-4---|-2---x-x-x-4~----|
D|-------------4---|-2---2---x-x-4---|-6---6---x-x-4---|-2---x-x-x-4~----|



   1 + 2 + 3 + 4 +   1 + 2 + 3 + 4 +   1 + 2 + 3 + 4 +   1 + 2 + 3 + 4 +
E|-----------------|-----------------|-----------------|-----------------|
B|-----------------|-----------------|-----------------|-----------------|
G|-4---4---x-x-6---|-8---8---x-x-6---|-4---4---x-x-6---|-8-8-8-8--11~----|
D|-x---x---x-x-x---|-x---x---x-x-x---|-x---x---x-x-x---|-x-x-x-x---x~----|
A|-2---2---x-x-4---|-6---6---x-x-4---|-2---2---x-x-4---|-6-6-6-6---9~----|
D|-----------------|-----------------|-----------------|-----------------|
 |
 |
 | 1 + 2 + 3 + 4 +   1 + 2 + 3 + 4 +   1 + 2 + 3 + 4 +   1 + 2 + 3 + 4 +
E|-----------------|-----------------|-----------------|-----------------|
B|-----------------|-----------------|-----------------|-----------------|
G|-4---4---x-x-----|-----------------|-----------------|-----------------|
D|-4---4---x-x-4---|-2---2---x-x-4---|-6---6---x-x-4---|-2---x-x-x-4~----|
A|-2---2---x-x-4---|-2---2---x-x-4---|-6---6---x-x-4---|-2---x-x-x-4~----|
D|-------------4---|-2---2---x-x-4---|-6---6---x-x-4---|-2---x-x-x-4~----|



   1 + 2 + 3 + 4 +   1 + 2 + 3 + 4 +   1 + 2 + 3 + 4 +   1 + 2 + 3 + 4 +
E|-----------------|-----------------|-----------------|-----------------|
B|-----------------|-----------------|-----------------|-----------------|
G|-4---4---x-x-6---|-8---8---x-x-6---|-4---4---x-x-6---|-8-8-8-8--11~----|
D|-x---x---x-x-x---|-x---x---x-x-x---|-x---x---x-x-x---|-x-x-x-x---x~----|
A|-2---2---x-x-4---|-6---6---x-x-4---|-2---2---x-x-4---|-6-6-6-6---9~----|
D|-----------------|-----------------|-----------------|-----------------|
 |
 |
 | 1 + 2 + 3 + 4 +   1 + 2 + 3 + 4 +   1 + 2 + 3 + 4 +   1 + 2 + 3 + 4 +
E|-----------------|-----------------|-----------------|-----------------|
B|-----------------|-----------------|-----------------|-----------------|
G|-4---4---x-x-----|-----------------|-----------------|-----------------|
D|-4---4---x-x-4---|-2---2---x-x-4---|-6---6---x-x-4---|-2---x-x-x-4~----|
A|-2---2---x-x-4---|-2---2---x-x-4---|-6---6---x-x-4---|-2---x-x-x-4~----|
D|-------------4---|-2---2---x-x-4---|-6---6---x-x-4---|-2---x-x-x-4~----|



   1 + 2 + 3 + 4 +   1 + 2 + 3 + 4 +   1 + 2 + 3 + 4 +   1 + 2 + 3 + 4 +
E|-----------------|-----------------|-----------------|-----------------|
B|-----------------|-----------------|-----------------|-----------------|
G|-4---4---x-x-6---|-8---8---x-x-6---|-4---4---x-x-6---|-8-8-8-8--11~----|
D|-x---x---x-x-x---|-x---x---x-x-x---|-x---x---x-x-x---|-x-x-x-x---x~----|
A|-2---2---x-x-4---|-6---6---x-x-4---|-2---2---x-x-4---|-6-6-6-6---9~----|
D|-----------------|-----------------|-----------------|-----------------|
 |
 |
 | 1 + 2 + 3 + 4 +   1 + 2 + 3 + 4 +   1 + 2 + 3 + 4 +   1 + 2 + 3 + 4 +
E|-----------------|-----------------|-----------------|-----------------|
B|-----------------|-----------------|-----------------|-----------------|
G|-4---4---x-x-----|-----------------|-----------------|-----------------|
D|-4---4---x-x-4---|-2---2---x-x-4---|-6---6---x-x-4---|-2---x-x-x-4~----|
A|-2---2---x-x-4---|-2---2---x-x-4---|-6---6---x-x-4---|-2---x-x-x-4~----|
D|-------------4---|-2---2---x-x-4---|-6---6---x-x-4---|-2---x-x-x-4~----|



Post-Chorus

   1 + 2 + 3 + 4 +   1 + 2 + 3 + 4 +   1 + 2 + 3 + 4 +   1 + 2 + 3 + 4 +
E|-----------------|-----------------|-----------------|-----------------|
B|-----------------|-----------------|-----------------|-----------------|
G|11111111---8-8-8-|-6-6-6-6---4-4-4-|11111111-8-8-8-8-|-6-6-6-8-6~------|
D|-x-x-x-x---x-x-x-|-x-x-x-x---x-x-x-|-x-x-x-x-x-x-x-x-|-x-x-x-x-x~------|
A|-9-9-9-9---6-6-6-|-4-4-4-4---2-2-2-|-9-9-9-9-6-6-6-6-|-4-4-4-6-4~------|
D|-----------------|-----------------|-----------------|-----------------|
 |
 |
 | 1 + 2 + 3 + 4 +   1 + 2 + 3 + 4 +   1 + 2 + 3 + 4 +   1 + 2 + 3 + 4 +
E|-----------------|-----------------|-----------------|-----------------|
B|-----------------|-----------------|-----------------|-----------------|
G|-----------------|-----------4~----|-----------------|-----------------|
D|-6-6-6-6---2~----|-4-4-4-4---4~----|-6-6-6-6-2-2-2-2-|-4-4-4-4-4-4-4-4-|
A|-6-6-6-6---2~----|-4-4-4-4---2~----|-6-6-6-6-2-2-2-2-|-4-4-4-4-4-4-4-4-|
D|-6-6-6-6---2~----|-4-4-4-4---------|-6-6-6-6-2-2-2-2-|-4-4-4-4-4-4-4-4-|



   1 + 2 + 3 + 4 +   1 + 2 + 3 + 4 +   1 + 2 + 3 + 4 +   1 + 2 + 3 + 4 +
E|-----------------|-----------------|-----------------|-----------------|
B|-----------------|-----------------|-----------------|-----------------|
G|11111111---8-8-8-|-6-6-6-6---4-4-4-|11111111-8-8-8-8-|-6-6-6-8-6~------|
D|-x-x-x-x---x-x-x-|-x-x-x-x---x-x-x-|-x-x-x-x-x-x-x-x-|-x-x-x-x-x~------|
A|-9-9-9-9---6-6-6-|-4-4-4-4---2-2-2-|-9-9-9-9-6-6-6-6-|-4-4-4-6-4~------|
D|-----------------|-----------------|-----------------|-----------------|
 |
 |
 | 1 + 2 + 3 + 4 +   1 + 2 + 3 + 4 +   1 + 2 + 3 + 4 +   1 + 2 + 3 + 4 +
E|-----------------|-----------------|-----------------|-----------------|
B|-----------------|-----------------|-----------------|-----------------|
G|-----------------|-----------4~----|-----------------|-----------------|
D|-6-6-6-6---2~----|-4-4-4-4---4~----|-6-6-6-6-2-2-2-2-|-4-4-4-4-4-4-4-4-|
A|-6-6-6-6---2~----|-4-4-4-4---2~----|-6-6-6-6-2-2-2-2-|-4-4-4-4-4-4-4-4-|
D|-6-6-6-6---2~----|-4-4-4-4---------|-6-6-6-6-2-2-2-2-|-4-4-4-4-4-4-4-4-|



Verse

   1 + 2 + 3 + 4 +   1 + 2 + 3 + 4 +   1 + 2 + 3 + 4 +   1 + 2 + 3 + 4 +
E|-----------------|-----------------|-----------------|-----------------|
B|-----------------|-----------------|-----------------|-----------------|
G|-9-----8-----6---|---9-----8---6---|-9-----8-----6---|---9-----8---6---|
D|-9-9-9-9-9-9-9-9-|-9-9-9-9-9-9-9-9-|-9-9-9-9-9-9-9-9-|-9-9-9-9-9-9-9-9-|
A|-----------------|-----------------|-----------------|-----------------|
D|-----------------|-----------------|-----------------|-----------------|
 | . . . . . . . .   . . . . . . . .   . . . . . . . .   . . . . . . . .
 |
 | 1 + 2 + 3 + 4 +   1 + 2 + 3 + 4 +   1 + 2 + 3 + 4 +   1 + 2 + 3 + 4 +
E|-----------------|-----------------|-----------------|-----------------|
B|-----------------|-----------------|-----------------|-----------------|
G|-----------------|-----------------|-----------------|-----------------|
D|-----------------|-----------------|-----------------|-----------------|
A|-----------------|-----------------|-----------------|-----------------|
D|-----------------|-----------------|-----------------|-----------------|



   1 + 2 + 3 + 4 +   1 + 2 + 3 + 4 +   1 + 2 + 3 + 4 +   1 + 2 + 3 + 4 +
E|-----------------|-----------------|-----------------|-----------------|
B|-----------------|-----------------|-----------------|-----------------|
G|-9-----8-----6---|---9-----8---6---|-9-----8-----6---|---9-----8---6---|
D|-9-9-9-9-9-9-9-9-|-9-9-9-9-9-9-9-9-|-9-9-9-9-9-9-9-9-|-9-9-9-9-9-9-9-9-|
A|-----------------|-----------------|-----------------|-----------------|
D|-----------------|-----------------|-----------------|-----------------|
 | . . . . . . . .   . . . . . . . .   . . . . . . . .   . . . . . . . .
 |
 | 1 + 2 + 3 + 4 +   1 + 2 + 3 + 4 +   1 + 2 + 3 + 4 +   1 + 2 + 3 + 4 +
E|-----------------|-----------------|-----------------|-----------------|
B|-----------------|-----------------|-----------------|-----------------|
G|-----------------|-----------------|-----------------|-----------------|
D|-----------------|-----------------|-----------------|-----------------|
A|-----------------|-----------------|-----------------|-----------------|
D|-----------------|-----------------|-----------------|--------------13\|



   1 + 2 + 3 + 4 +   1 + 2 + 3 + 4 +   1 + 2 + 3 + 4 +   1 + 2 + 3 + 4 +
E|-----------------|-----------------|-----------------|-----------------|
B|-----------------|-----------------|-----------------|-----------------|
G|-9-----8-----6---|---9-----8---6---|-9-----8-----6---|---9-----8---6---|
D|-9-9-9-9-9-9-9-9-|-9-9-9-9-9-9-9-9-|-9-9-9-9-9-9-9-9-|-9-9-9-9-9-9-9-9-|
A|-----------------|-----------------|-----------------|-----------------|
D|-----------------|-----------------|-----------------|-----------------|
 | . . . . . . . .   . . . . . . . .   . . . . . . . .   . . . . . . . .
 |
 | 1 + 2 + 3 + 4 +   1 + 2 + 3 + 4 +   1 + 2 + 3 + 4 +   1 + 2 + 3 + 4 +
E|-----------------|-----------------|-----------------|-----------------|
B|-----------------|-----------------|-----5-------5---|-----5-------5---|
G|-----8-------8---|-----8-------8---|-6-6-6-6-6-6-6-6-|-6-6-6-6-6-6-6-6-|
D|-6-6-6-6-6-6-6-6-|-6-6-6-6-6-6-6-6-|-6-6-6-6-6-6-6-6-|-6-6-6-6-6-6-6-6-|
A|-6-6-6-6-6-6-6-6-|-6-6-6-6-6-6-6-6-|-4-4-4-4-4-4-4-4-|-4-4-4-4-4-4-4-4-|
D|-6-6-6-6-6-6-6-6-|-6-6-6-6-6-6-6-6-|-----------------|-----------------|
   . .   . . .   .   . .   . . .   .   . .   . . .   .   . .   . . .   .



   1 + 2 + 3 + 4 +   1 + 2 + 3 + 4 +   1 + 2 + 3 + 4 +   1 + 2 + 3 + 4 +
E|-----------------|-----------------|-----------------|-----------------|
B|-----------------|-----------------|-----------------|-----------------|
G|-9-----8-----6---|---9-----8---6---|-9-----8-----6---|---9-----8---6---|
D|-9-9-9-9-9-9-9-9-|-9-9-9-9-9-9-9-9-|-9-9-9-9-9-9-9-9-|-9-9-9-9-9-9-9-9-|
A|-----------------|-----------------|-----------------|-----------------|
D|-----------------|-----------------|-----------------|-----------------|
 | . . . . . . . .   . . . . . . . .   . . . . . . . .   . . . . . . . .
 |
 | 1 + 2 + 3 + 4 +   1 + 2 + 3 + 4 +   1 + 2 + 3 + 4 +   1 + 2 + 3 + 4 +
E|-----------------|-----------------|-----------------|-----------------|
B|-----5-------5---|-----5-------5---|-----------------|-5-5-5-5-5-5-5-5-|
G|-----4-------4---|-----4-------4---|-----------------|-4-4-4-4-4-4-4-4-|
D|-2-2-2-2-2-2-2-2-|-2-2-2-2-2-2-2-2-|-2-2-2-2-2-2-2-2-|-2-2-2-2-2-2-2-2-|
A|-2-2-2-2-2-2-2-2-|-2-2-2-2-2-2-2-2-|-2-2-2-2-2-2-2-2-|-2-2-2-2-2-2-2-2-|
D|-2-2-2-2-2-2-2-2-|-2-2-2-2-2-2-2-2-|-2-2-2-2-2-2-2-2-|-2-2-2-2-2-2-2-2-|
   . .   . . .   .   . .   . . .   .   . . . . . . . .



Pre-Chorus

   1 + 2 + 3 + 4 +   1 + 2 + 3 + 4 +   1 + 2 + 3 + 4 +   1 + 2 + 3 + 4 +
E|-----------------|-----------------|-----------------|-----------------|
B|-----------------|-----------------|-----------------|-----------------|
G|-----------------|-----------4~----|-----------------|-----------------|
D|-6-6-6-6---2~----|-4-4-4-4---4~----|-6-6-6-6-2-2-2-2-|-4-4-4-4-4-4-4-4-|
A|-6-6-6-6---2~----|-4-4-4-4---2~----|-6-6-6-6-2-2-2-2-|-4-4-4-4-4-4-4-4-|
D|-6-6-6-6---2~----|-4-4-4-4---------|-6-6-6-6-2-2-2-2-|-4-4-4-4-4-4-4-4-|
 |
 |
 | 1 + 2 + 3 + 4 +   1 + 2 + 3 + 4 +   1 + 2 + 3 + 4 +   1 + 2 + 3 + 4 +
E|-----------------|-----------------|-----------------|-----------------|
B|-----------------|-----------------|-----------------|-----------------|
G|-----------------|-----------4~----|-----------------|-----------------|
D|-6-6-6-6---2~----|-4-4-4-4---4~----|-6-6-6-6-2-2-2-2-|-4-4-4-4-4-4-4-4-|
A|-6-6-6-6---2~----|-4-4-4-4---2~----|-6-6-6-6-2-2-2-2-|-4-4-4-4-4-4-4-4-|
D|-6-6-6-6---2~----|-4-4-4-4---------|-6-6-6-6-2-2-2-2-|-4-4-4-4-4-4-4-4-|



   1 + 2 + 3 + 4 +   1 + 2 + 3 + 4 +   1 + 2 + 3 + 4 +   1 + 2 + 3 + 4 +
E|-----------------|-----------------|-----------------|-----------------|
B|-----------------|-----------------|-----------------|-----------------|
G|-----------------|-----------4~----|-----------------|-----------------|
D|-6-6-6-6---2~----|-4-4-4-4---4~----|-6-6-6-6-2-2-2-2-|-4-4-4-4-4-------|
A|-6-6-6-6---2~----|-4-4-4-4---2~----|-6-6-6-6-2-2-2-2-|-4-4-4-4-4-------|
D|-6-6-6-6---2~----|-4-4-4-4---------|-6-6-6-6-2-2-2-2-|-4-4-4-4-4-------|
 |                                                         . . . 
 |
 | 1 + 2 + 3 + 4 +   1 + 2 + 3 + 4 +   1 + 2 + 3 + 4 +   1 + 2 + 3 + 4 +
E|-----------------|-----------------|-----------------|-----------------|
B|-----------------|-----------------|-----------------|-----------------|
G|-----------------|-----------4~----|-----------------|-----------------|
D|-6-6-6-6---2~----|-4-4-4-4---4~----|-6-6-6-6-2-2-2-2-|-4-4-4-4-4-------|
A|-6-6-6-6---2~----|-4-4-4-4---2~----|-6-6-6-6-2-2-2-2-|-4-4-4-4-4-------|
D|-6-6-6-6---2~----|-4-4-4-4---------|-6-6-6-6-2-2-2-2-|-4-4-4-4-4-------|
                                                           . . . 


Chorus

   1 + 2 + 3 + 4 +   1 + 2 + 3 + 4 +   1 + 2 + 3 + 4 +   1 + 2 + 3 + 4 +
E|-----------------|-----------------|-----------------|-----------------|
B|-----------------|-----------------|-----------------|-----------------|
G|-4---4---x-x-6---|-8---8---x-x-6---|-4---4---x-x-6---|-8-8-8-8--11~----|
D|-x---x---x-x-x---|-x---x---x-x-x---|-x---x---x-x-x---|-x-x-x-x---x~----|
A|-2---2---x-x-4---|-6---6---x-x-4---|-2---2---x-x-4---|-6-6-6-6---9~----|
D|-----------------|-----------------|-----------------|-----------------|
 |
 |
 | 1 + 2 + 3 + 4 +   1 + 2 + 3 + 4 +   1 + 2 + 3 + 4 +   1 + 2 + 3 + 4 +
E|-----------------|-----------------|-----------------|-----------------|
B|-----------------|-----------------|-----------------|-----------------|
G|-4---4---x-x-----|-----------------|-----------------|-----------------|
D|-4---4---x-x-4---|-2---2---x-x-4---|-6---6---x-x-4---|-2---x-x-x-4~----|
A|-2---2---x-x-4---|-2---2---x-x-4---|-6---6---x-x-4---|-2---x-x-x-4~----|
D|-------------4---|-2---2---x-x-4---|-6---6---x-x-4---|-2---x-x-x-4~----|



   1 + 2 + 3 + 4 +   1 + 2 + 3 + 4 +   1 + 2 + 3 + 4 +   1 + 2 + 3 + 4 +
E|-----------------|-----------------|-----------------|-----------------|
B|-----------------|-----------------|-----------------|-----------------|
G|-4---4---x-x-6---|-8---8---x-x-6---|-4---4---x-x-6---|-8-8-8-8--11~----|
D|-x---x---x-x-x---|-x---x---x-x-x---|-x---x---x-x-x---|-x-x-x-x---x~----|
A|-2---2---x-x-4---|-6---6---x-x-4---|-2---2---x-x-4---|-6-6-6-6---9~----|
D|-----------------|-----------------|-----------------|-----------------|
 |
 |
 | 1 + 2 + 3 + 4 +   1 + 2 + 3 + 4 +   1 + 2 + 3 + 4 +   1 + 2 + 3 + 4 +
E|-----------------|-----------------|-----------------|-----------------|
B|-----------------|-----------------|-----------------|-----------------|
G|-4---4---x-x-----|-----------------|-----------------|-----------------|
D|-4---4---x-x-4---|-2---2---x-x-4---|-6---6---x-x-4---|-2---x-x-x-4~----|
A|-2---2---x-x-4---|-2---2---x-x-4---|-6---6---x-x-4---|-2---x-x-x-4~----|
D|-------------4---|-2---2---x-x-4---|-6---6---x-x-4---|-2---x-x-x-4~----|



   1 + 2 + 3 + 4 +   1 + 2 + 3 + 4 +   1 + 2 + 3 + 4 +   1 + 2 + 3 + 4 +
E|-----------------|-----------------|-----------------|-----------------|
B|-----------------|-----------------|-----------------|-----------------|
G|-4---4---x-x-6---|-8---8---x-x-6---|-4---4---x-x-6---|-8-8-8-8--11~----|
D|-x---x---x-x-x---|-x---x---x-x-x---|-x---x---x-x-x---|-x-x-x-x---x~----|
A|-2---2---x-x-4---|-6---6---x-x-4---|-2---2---x-x-4---|-6-6-6-6---9~----|
D|-----------------|-----------------|-----------------|-----------------|
 |
 |
 | 1 + 2 + 3 + 4 +   1 + 2 + 3 + 4 +   1 + 2 + 3 + 4 +   1 + 2 + 3 + 4 +
E|-----------------|-----------------|-----------------|-----------------|
B|-----------------|-----------------|-----------------|-----------------|
G|-4---4---x-x-----|-----------------|-----------------|-----------------|
D|-4---4---x-x-4---|-2---2---x-x-4---|-6---6---x-x-4---|-2---x-x-x-4~----|
A|-2---2---x-x-4---|-2---2---x-x-4---|-6---6---x-x-4---|-2---x-x-x-4~----|
D|-------------4---|-2---2---x-x-4---|-6---6---x-x-4---|-2---x-x-x-4~----|



   1 + 2 + 3 + 4 +   1 + 2 + 3 + 4 +   1 + 2 + 3 + 4 +   1 + 2 + 3 + 4 +
E|-----------------|-----------------|-----------------|-----------------|
B|-----------------|-----------------|-----------------|-----------------|
G|-4---4---x-x-6---|-8---8---x-x-6---|-4---4---x-x-6---|-8-8-8-8--11~----|
D|-x---x---x-x-x---|-x---x---x-x-x---|-x---x---x-x-x---|-x-x-x-x---x~----|
A|-2---2---x-x-4---|-6---6---x-x-4---|-2---2---x-x-4---|-6-6-6-6---9~----|
D|-----------------|-----------------|-----------------|-----------------|
 |
 |
 | 1 + 2 + 3 + 4 +   1 + 2 + 3 + 4 +   1 + 2 + 3 + 4 +   1 + 2 + 3 + 4 +
E|-----------------|-----------------|-----------------|-----------------|
B|-----------------|-----------------|-----------------|-----------------|
G|-4---4---x-x-----|-----------------|-----------------|-----------------|
D|-4---4---x-x-4---|-2---2---x-x-4---|-6---6---x-x-4---|-2---x-x-x-4~----|
A|-2---2---x-x-4---|-2---2---x-x-4---|-6---6---x-x-4---|-2---x-x-x-4~----|
D|-------------4---|-2---2---x-x-4---|-6---6---x-x-4---|-2---x-x-x-4~----|



Bridge

   1 + 2 + 3 + 4 +   1 + 2 + 3 + 4 +   1 + 2 + 3 + 4 +   1 + 2 + 3 + 4 +
E|-----------------|-----------------|-----------------|-----------------|
B|-----------------|-----------------|-----------------|-----------------|
G|-----------------|-----------------|-----------------|-----------------|
D|-----------------|-----------------|-----------------|-----------------|
A|-----------------|-----------------|-----------------|-----------------|
D|-----------------|-----------------|-----------------|-----------------|
 |
 |
 | 1 + 2 + 3 + 4 +   1 + 2 + 3 + 4 +   1 + 2 + 3 + 4 +   1 + 2 + 3 + 4 +
E|-----------------|-----------------|-----------------|-----------------|
B|-----------------|-----------------|-----------------|-----------------|
G|-----------------|-----------------|-6-6-6-6-6-6-6-6-|-6-6-6-6-6-6-6-6-|
D|-6-6-6-6-6-6-6-6-|-6-6-6-6-6-6-6-6-|-6-6-6-6-6-6-6-6-|-6-6-6-6-6-6-6-6-|
A|-6-6-6-6-6-6-6-6-|-6-6-6-6-6-6-6-6-|-4-4-4-4-4-4-4-4-|-4-4-4-4-4-4-4-4-|
D|-6-6-6-6-6-6-6-6-|-6-6-6-6-6-6-6-6-|-----------------|-----------------|
   . . . . . . . .   . . . . . . . .   . . . . . . . .   . . . . . . . . 



   1 + 2 + 3 + 4 +   1 + 2 + 3 + 4 +   1 + 2 + 3 + 4 +   1 + 2 + 3 + 4 +
E|-----------------|-----------------|-----------------|-----------------|
B|-----------------|-----------------|-----------------|-----------------|
G|-----------------|-----------------|-----------------|-----------------|
D|-----------------|-----------------|-----------------|-----------------|
A|-----------------|-----------------|-----------------|-----------------|
D|-----------------|-----------------|-----------------|-----------------|
 |
 |
 | 1 + 2 + 3 + 4 +   1 + 2 + 3 + 4 +   1 + 2 + 3 + 4 +   1 + 2 + 3 + 4 +
E|-----------------|-----------------|-----------------|-----------------|
B|-----------------|-----------------|-----------------|-----------------|
G|-----------------|-----------------|-4-4-4-4-4-4-4-4-|-4-4-4-4-3-3-3-3-|
D|-2-2-2-2-2-2-2-2-|-2-2-2-2-2-2-2-2-|-4-4-4-4-4-4-4-4-|-4-4-4-4-4-4-4-4-|
A|-2-2-2-2-2-2-2-2-|-2-2-2-2-2-2-2-2-|-2-2-2-2-2-2-2-2-|-2-2-2-2-1-1-1-1-|
D|-2-2-2-2-2-2-2-2-|-2-2-2-2-2-2-2-2-|-----------------|-----------------|
   . . . . . . . .   . . . . . . . .   . . . . . . . .   . . . . . . . .



   1 + 2 + 3 + 4 +   1 + 2 + 3 + 4 +   1 + 2 + 3 + 4 +   1 + 2 + 3 + 4 +
E|-----------------|-----------------|-----------------|-----------------|
B|-----------------|-----------------|-----------------|-----------------|
G|-9-----8-----6---|---9-----8---6---|-9-----8-----6---|---9-----8---6---|
D|-9-9-9-9-9-9-9-9-|-9-9-9-9-9-9-9-9-|-9-9-9-9-9-9-9-9-|-9-9-9-9-9-9-9-9-|
A|-----------------|-----------------|-----------------|-----------------|
D|-----------------|-----------------|-----------------|-----------------|
 | . . . . . . . .   . . . . . . . .   . . . . . . . .   . . . . . . . .
 |
 | 1 + 2 + 3 + 4 +   1 + 2 + 3 + 4 +   1 + 2 + 3 + 4 +   1 + 2 + 3 + 4 +
E|-----------------|-----------------|-----------------|-----------------|
B|-----------------|-----------------|-----------------|-----------------|
G|-----------------|-----------------|-6-6-6-6-6-6-6-6-|-6-6-6-6-6-6-6-6-|
D|-6-6-6-6-6-6-6-6-|-6-6-6-6-6-6-6-6-|-6-6-6-6-6-6-6-6-|-6-6-6-6-6-6-6-6-|
A|-6-6-6-6-6-6-6-6-|-6-6-6-6-6-6-6-6-|-4-4-4-4-4-4-4-4-|-4-4-4-4-4-4-4-4-|
D|-6-6-6-6-6-6-6-6-|-6-6-6-6-6-6-6-6-|-----------------|-----------------|
   . . . . . . . .   . . . . . . . .   . . . . . . . .   . . . . . . . . 



   1 + 2 + 3 + 4 +   1 + 2 + 3 + 4 +   1 + 2 + 3 + 4 +   1 + 2 + 3 + 4 +
E|-----------------|-----------------|-----------------|-----------------|
B|-----------------|-----------------|-----7-7---------|-----7-7---------|
G|-9-----8-----6---|---9-----8---6---|---------8-8-6-6-|---------8-8-6-6-|
D|-9-9-9-9-9-9-9-9-|-9-9-9-9-9-9-9-9-|-----------------|-----------------|
A|-----------------|-----------------|-----------------|-----------------|
D|-----------------|-----------------|-----------------|-----------------|
 | . . . . . . . .   . . . . . . . .
 |
 | 1 + 2 + 3 + 4 +   1 + 2 + 3 + 4 +   1 + 2 + 3 + 4 +   1 + 2 + 3 + 4 +
E|-----------------|-----------------|-----------------|-----------------|
B|-----------------|-----------------|-----------------|-----------------|
G|-----------------|-----------------|-----------------|-----------------|
D|-2-2-2-2-2-2-2-2-|-2-2-2-2-2-2-2-2-|-2-2-2-2-2-2-2-2-|-2-2-2-2-2-2-2-2-|
A|-2-2-2-2-2-2-2-2-|-2-2-2-2-2-2-2-2-|-2-2-2-2-2-2-2-2-|-2-2-2-2-2-2-2-2-|
D|-2-2-2-2-2-2-2-2-|-2-2-2-2-2-2-2-2-|-2-2-2-2-2-2-2-2-|-2-2-2-2-2-2-2-2-|
   . . . . . . . .   . . . . . . . .



Pre-Chorus (Variation)

   1 + 2 + 3 + 4 +   1 + 2 + 3 + 4 +   1 + 2 + 3 + 4 +   1 + 2 + 3 + 4 +
E|-----------------|-----------0-----|-----------------|-----------------|
B|-----------------|-----------0-----|-----------------|-----------------|
G|-----------------|-----------0-----|-----------------|-----------------|
D|-6-6-------------|-4-4-------0-----|-6-6-6-6-2-2-2-2-|-4-4-4-4-x-x-x-x-|
A|-6-6-------------|-4-4-------0-----|-6-6-6-6-2-2-2-2-|-4-4-4-4-x-x-x-x-|
D|-6-6-------------|-4-4-------0-----|-6-6-6-6-2-2-2-2-|-4-4-4-4-x-x-x-x-|
 |
 |
 | 1 + 2 + 3 + 4 +   1 + 2 + 3 + 4 +   1 + 2 + 3 + 4 +   1 + 2 + 3 + 4 +
E|-----------------|-----------0-----|-----------------|-----------------|
B|-----------------|-----------0-----|-----------------|-----------------|
G|-----------------|-----------0-----|-----------------|-----------------|
D|-6-6-------------|-4-4-------0-----|-6-6-6-6-2-2-2-2-|-4-4-4-4-x-x-x-x-|
A|-6-6-------------|-4-4-------0-----|-6-6-6-6-2-2-2-2-|-4-4-4-4-x-x-x-x-|
D|-6-6-------------|-4-4-------0-----|-6-6-6-6-2-2-2-2-|-4-4-4-4-x-x-x-x-|



   1 + 2 + 3 + 4 +   1 + 2 + 3 + 4 +   1 + 2 + 3 + 4 +   1 + 2 + 3 + 4 +
E|-----------------|-----------------|-----------------|-----------------|
B|-----------------|-----------------|-----------------|-----------------|
G|-----------------|-----------4~----|-----------------|-----------------|
D|-6---6-----2~----|-4---4-----4~----|-6---6---2---2---|-4---4-4-4-4-----|
A|-6---6-----2~----|-4---4-----2~----|-6---6---2---2---|-4---4-4-4-4-11\-|
D|-6---6-----2~----|-4---4-----------|-6---6---2---2---|-4---4-4-4-4-----|
 |
 |
 | 1 + 2 + 3 + 4 +   1 + 2 + 3 + 4 +   1 + 2 + 3 + 4 +   1 + 2 + 3 + 4 +
E|-----------------|-----------------|-----------------|-----------------|
B|-----------------|-----------------|-----------------|-----------------|
G|-----------------|-----------4~----|-----------------|-----------------|
D|-6---6-----2~----|-4---4-----4~----|-6---6---2---2---|-4---4-4-4-4-4-4-|
A|-6---6-----2~----|-4---4-----2~----|-6---6---2---2---|-4---4-4-4-4-4-4-|
D|-6---6-----2~----|-4---4-----------|-6---6---2---2---|-4---4-4-4-4-4-4-|



   1 + 2 + 3 + 4 +   1 + 2 + 3 + 4 +   1 + 2 + 3 + 4 +   1 + 2 + 3 + 4 +
E|-----------------|-----------------|-----------------|-----------------|
B|-----------------|-----------------|-----------------|-----------------|
G|-----6-8-6---6-8-|-6---6-8-6-------|-----6-8-6---6-8-|-6~--------------|
D|-6-9-------9-----|---9-------9-----|-6-9-------9-----|-----------------|
A|-----------------|-------------9~--|-----------------|-----------------|
D|-----------------|-----------------|-----------------|-----------------|
 |
 |
 | 1 + 2 + 3 + 4 +   1 + 2 + 3 + 4 +   1 + 2 + 3 + 4 +   1 + 2 + 3 + 4 +
E|-----------------|-----------------|-----------------|-----------------|
B|-----------------|-----------------|-----------------|-----------------|
G|-----------------|-----------4~----|-----------------|-----------------|
D|-6---6-----2~----|-4---4-----4~----|-6---6---2---2---|-4---4-4-4-4-4-4-|
A|-6---6-----2~----|-4---4-----2~----|-6---6---2---2---|-4---4-4-4-4-4-4-|
D|-6---6-----2~----|-4---4-----------|-6---6---2---2---|-4---4-4-4-4-4-4-|



   1 + 2 + 3 + 4 +   1 + 2 + 3 + 4 +   1 + 2 + 3 + 4 +   1 + 2 + 3 + 4 +
E|-----------------|-----------------|-----------------|-----------------|
B|-----------------|-----------------|-----------------|-----------------|
G|-----6-8-6---6-8-|-6---6-8-6-------|-----6-8-6---6-8-|-6~--------------|
D|-6-9-------9-----|---9-------9-----|-6-9-------9-----|-----------------|
A|-----------------|-------------9~--|-----------------|-----------------|
D|-----------------|-----------------|-----------------|-----------------|
 |
 |
 | 1 + 2 + 3 + 4 +   1 + 2 + 3 + 4 +   1 + 2 + 3 + 4 +   1 + 2 + 3 + 4 +
E|-----------------|-----------------|-----------------|-----------------|
B|-----------------|-----------------|-----------------|-----------------|
G|-----------------|-----------4~----|-----------------|-----------------|
D|-6---6-----2~----|-4---4-----4~----|-6---6---2---2---|-4---4-4-4-4-4-4-|
A|-6---6-----2~----|-4---4-----2~----|-6---6---2---2---|-4---4-4-4-4-4-4-|
D|-6---6-----2~----|-4---4-----------|-6---6---2---2---|-4---4-4-4-4-4-4-|



Outro

   1 + 2 + 3 + 4 +   1 + 2 + 3 + 4 +   1 + 2 + 3 + 4 +   1 + 2 + 3 + 4 +
E|-----------------|-----------------|-----------------|-----------------|
B|-----------------|-----------------|-----------------|-----------------|
G|-----------------|-----------------|-----------------|-----------------|
D|-----------------|-----------------|-----------------|-----------------|
A|-----------------|-----------------|-----------------|-----------------|
D|-----------------|-----------------|-----------------|-----------------|
 |
 |
 | 1 + 2 + 3 + 4 +   1 + 2 + 3 + 4 +   1 + 2 + 3 + 4 +   1 + 2 + 3 + 4 +
E|-----------------|-----------------|-----------------|-----------------|
B|-----------------|-----------------|-----------------|-----------------|
G|-4---4---x-x-----|-----------------|-----------------|-----------------|
D|-4---4---x-x-4---|-2---2---x-x-4---|-6---6---x-x-4---|-2---x-x-x-4~----|
A|-2---2---x-x-4---|-2---2---x-x-4---|-6---6---x-x-4---|-2---x-x-x-4~----|
D|-------------4---|-2---2---x-x-4---|-6---6---x-x-4---|-2---x-x-x-4~----|



   1 + 2 + 3 + 4 +   1 + 2 + 3 + 4 +   1 + 2 + 3 + 4 +   1 + 2 + 3 + 4 +
E|-----------------|-----------------|-----------------|-----------------|
B|-----------------|-----------------|-----------------|-----------------|
G|-----------------|-----------------|-----------------|-----------------|
D|-----------------|-----------------|-----------------|-----------------|
A|-----------------|-----------------|-----------------|-----------------|
D|-----------------|-----------------|-----------------|-----------------|
 |
 |
 | 1 + 2 + 3 + 4 +   1 + 2 + 3 + 4 +   1 + 2 + 3 + 4 +   1 + 2 + 3 + 4 +
E|-----------------|-----------------|-----------------|-----------------|
B|-----------------|-----------------|-----------------|-----------------|
G|-4---4---x-x-----|-----------------|-----------------|-----------------|
D|-4---4---x-x-4---|-2---2---x-x-4---|-6---6---x-x-4---|-2-2-------------|
A|-2---2---x-x-4---|-2---2---x-x-4---|-6---6---x-x-4---|-2-2-------------|
D|-------------4---|-2---2---x-x-4---|-6---6---x-x-4---|-2-2-------------|


and thats it, enjoy!
            

comments powered by Disqus
↑ Back to top | Fall Out Boy Tabs for 7 Minutes In Heaven (Atavan Halen). Lyrics for acoustic guitar and electric guitar. Tablatures and chords are parodies/interpretations of the original songs. You may use it for private study, scholarship, research or language learning purposes only