>
 >
7 Minutes In Heaven (Atavan Halen) 1

7 Minutes In Heaven (Atavan Halen) 1 Guitar Tabs

Fall Out Boy - 7 Minutes In Heaven (Atavan Halen) 1 chords, tabs, tablatures, lyrics

Guitar lessons | Add/correct | Request | Top 50 tabs Artists:  A B C D E F G H I J K L M N O P Q R S T U V W X Y Z 0-9

7 Minutes In Heaven (Atavan Halen) 1 Guitar Tabs – Fall Out Boy

CD, Sheet music, Poster

Do you like 7 Minutes In Heaven (Atavan Halen) 1? Share with your friends now
Bass TabsBass Tabs v2Bass Tabs v3TabsTabs v2Tabs v3
Fall out boy 7 minutes in heaven (Atavan halen) 
Track: 7
Tuning: Standard

Improved chorus vastly ĖI havenít seen one tabbed like that before and

Intro
Guitar 2
E|---------------------------------|---------------------------------|
B|---------------------------------|---------------------------------|
G|-9-99--8-88--6-66--9-99--8-88--6-|-9-99--8-88--6-66--9-99--8-88--6-|
D|-9-99--9-99--9-99--9-99--9-99--9-|-9-99--9-99--9-99--9-99--9-99--9-|
A|---------------------------------|---------------------------------|
E|---------------------------------|---------------------------------|
PM   **    **    **    **    **        **    **    **    **    **

Intro cont
Guitar 1
E|-------------------------|--------------------------|
B|-------------------------|--------------------------|
G|----------------------4~-|--------------------------|
D|--6-6-6-6--2~----4444-4~-|--6-6-6-6--2222--44444444-|
A|--6-6-6-6--2~-x--4444-2~-|--6-6-6-6--2222--44444444-|
E|--4-4-4-4--0~-x--2222----|--4-4-4-4--0000--22222222-|
Guitar 2
E|-------------------------|--------------------------|
B|-------------------------|--------------------------|
G|-11111111--8~----6666-4~-|-11111111--8888--6666-6/8-|
D|--x-x-x-x--x~----xxxx-x~-|--x-x-x-x--xxxx--xxxx-x-x-|
A|--9-9-9-9--6~----4444-2~-|--9-9-9-9--6666--4444-4/6-|
E|-------------------------|--------------------------|

Verse
Guitar 1
E|--------------------------------------------------------------------|
B|--------------------------------------------------------------------|
G|--------------------4---4---4---4---------------------4---4---4---4-|
D|---6---6---6---6--444-444-444-444----2---2---2---2--444-444-444-444-|
A|-666-666-666-666--222-222-222-222--222-222-222-222--222-222-222-222-|
E|-444-444-444-444-------------------000-000-000-000------------------|
PM **  **  **  **   **  **  **  **   **  **  **  **   **  **  **  **
Guitar 2
E|--------------------------------------------------------------------|
B|------------------12121212121212--------------------12121212121212--|
G|-------------------x-x-x-x-x-x-x---------------------x-x-x-x-x-x-x--|
D|-------------------9-9-9-9-9-9-9---------------------9-9-9-9-9-9-9--|
A|--------------------------------------------------------------------|
E|--------------------------------------------------------------------|

Guitar 1
E|------------------------------------------------------------------------|
B|------------------------------------------------------------------------|
G|--------------------4---4---4---4---------------------4---4---4-4444444-|
D|---6---6---6---6--444-444-444-444----2---2---2---2--444-444-444-4444444-|
A|-666-666-666-666--222-222-222-222--222-222-222-222--222-222-222-2222222-|
E|-444-444-444-444-------------------000-000-000-000----------------------|
PM **  **  **  **   **  **  **  **   **  **  **  **   **  **  ** 
Guitar 2
E|------------------------------------------------------------------------|
B|------------------12121212121212----------------------------------------|
G|-------------------x-x-x-x-x-x-x----------------------------------------|
D|-------------------9-9-9-9-9-9-9----------------------------------------|
A|------------------------------------------------------------------------|
E|------------------------------------------------------------------------|

Pre Chorus
Both guitars
E|----------------------------------------|---------------------------------------|
B|----------------------------------------|---------------------------------------|
G|----------------4~----------------------|----------------4~---------------------|
D|-6666-2~---4444-4~---6666-2222-44444444-|-6666-2~---4444-4~---6666-2222-4-----4-|
A|-6666-2~-x-4444-2~-x-6666-2222-44444444-|-6666-2~-x-4444-2~-x-6666-2222-4-44444-|
E|-4444-0~-x-2222----x-4444-0000-22222222-|-4444-0~-x-2222----x-4444-0000-2-22222-|
PM                                                                               ****

Chorus
Both guitars
E|------------------------------------|------------------------------------|
B|------------------------------------|------------------------------------|
G|-44---------------------------------|-44---------------------------------|
D|-44-----4-22-----4-66-----4-2-----4-|-44-----4-22-----4-66-----4-2-----4-|
A|-22-xxx-4-22-xxx-4-66-xxx-4-2-222-4-|-22-xxx-4-22-xxx-4-66-xxx-4-2-222-4-|
E|----xxx-2-00-xxx-2-44-xxx-2-0-000-2-|----xxx-2-00-xxx-2-44-xxx-2-0-000-2-|
PM                              ***                                  ***

E|------------------------------------|------------------------------------|
B|------------------------------------|------------------------------------|
G|-44---------------------------------|-44---------------------------------|
D|-44-----4-22-----4-66-----4-2-----4-|-44-----4-22-----4-66-----4-2-----4-|
A|-22-xxx-4-22-xxx-4-66-xxx-4-2-222-4-|-22-xxx-4-22-xxx-4-66-xxx-4-2-222-4-|
E|----xxx-2-00-xxx-2-44-xxx-2-0-000-2-|----xxx-2-00-xxx-2-44-xxx-2-0-000-2-|
PM                              ***                                  ***

Verse 2
Guitar 2
E|--------------------------------------------------------------------------------|
B|--------------------------------------------------------------------------------|
G|-9-99-9-99-9-99-9-9--8-88-8-88-8-88-8-8--6-66-6-66-6-66-6-6--9-99-9-99-9-99-9-9-|
D|-9-99-9-99-9-99-9-9--9-99-9-99-9-99-9-9--9-99-9-99-9-99-9-9--9-99-9-99-9-99-9-9-|
A|--------------------------------------------------------------------------------|
E|--------------------------------------------------------------------------------|
PM   **   **   **        **   **   **        **   **   **        **   **   **      

Verse 2 cont
Guitar 1
E|----------------------------------------------------------------------|
B|----------------------------------------------------------------------|
G|--------------------4---4---4---4-------------------44444444-44444444-|
D|---6---6---6---6--444-444-444-444----2---2---2---2--44444444-44444444-|
A|-666-666-666-666--222-222-222-222--222-222-222-222--22222222-22222222-|
E|-444-444-444-444-------------------000-000-000-000--------------------|
PM **  **  **  **   **  **  **  **   **  **  **  **   ********
Guitar 2
E|----------------------------------------------------------------------|
B|----------------------------------------------------------------------|
G|-9-99-9-99-9-99---8-88-8-88-8-88---6-66-6-66-6-66------------44444444-|
D|-9-99-9-99-9-99---9-99-9-99-9-99---9-99-9-99-9-99------------44444444-|
A|-------------------------------------------------------------22222222-|
E|----------------------------------------------------------------------|
PM   **   **   **     **   **   **     **   **   ** 

Bridge
Guitar 1 only
E|-----------------------------------------------------|
B|-----------------------------------------------------|
G|---------------------------666666666666-666666666666-|
D|-666666666666-666666666666-666666666666-666666666666-|
A|-666666666666-666666666666-444444444444-444444444444-|
E|-444444444444-444444444444---------------------------|
PM ************ ************ ************ ************

E|-----------------------------------------------------|
B|-----------------------------------------------------|
G|---------------------------444444444444-444444444444-|
D|-222222222222-222222222222-444444444444-444444444444-|
A|-222222222222-222222222222-222222222222-444444444444-|
E|-000000000000-000000000000---------------------------|
PM ************ ************ ************ ************

Bridge cont
Guitar 1
E|------------------------------------------------------------|
B|------------------------------------------------------------|
G|-------------------------------666666-666666--666666-666666-|
D|-666666-666666--666666-666666--666666-666666--666666-666666-|
A|-666666-666666--666666-666666--444444-444444--444444-444444-|
E|-444444-444444--444444-444444-------------------------------|
PM *************  *************  *************  *************
Guitar 2
E|------------------------------------------------------------|
B|------------------------------------------------------------|
G|9-99-9-99-9-99-9-99-9-99-9-99--8-88-8-88-8-88-8-88-8-88-8-88|
D|9-99-9-99-9-99-9-99-9-99-9-99--9-99-9-99-9-99-9-99-9-99-9-99|
A|------------------------------------------------------------|
E|------------------------------------------------------------|
PM  **   **   **   **   **   **    **   **   **   **   **   **

Guitar 1
E|-----------------------------------------------------|
B|-----------------------------------------------------|
G|-------------------------------444444-444444--444444-|
D|-222222-222222--222222-222222--444444-444444--444444-|
A|-222222-222222--222222-222222--222222-222222--222222-|
E|-000000-000000--000000-000000------------------------|
PM *************  *************  *************  ******
Guitar 2
E|-----------------------------------------------------|
B|-----------------------------------------------------|
G|6-66-6-66-6-66-6-66-6-66-6-66--9-99-9-99-9-99--------|
D|9-99-9-99-9-99-9-99-9-99-9-99--9-99-9-99-9-99--------|
A|-----------------------------------------------------|
E|-----------------------------------------------------|
PM  **   **   **   **   **   **    **   **   **

Pre Solo
E|-----------------------------------|----------------------------------------|
B|-----------------------------------|----------------------------------------|
G|-----------------------------------|----------------4~----------------------|
D|-66-44-------6666-2222-444444-xxxx-|-6666-2~---4444-4~---6666-2222-44444444-|
A|-66-44-------6666-2222-444444-xxxx-|-6666-2~-x-4444-2~-x-6666-2222-44444444-|
E|-44-22--16\--4444-0000-222222-xxxx-|-4444-0~-x-2222----x-4444-0000-22222222-|


Solo
Guitar 1
E|------------------------------|------------------------|
B|------------------------------|------------------------|
G|----------------------------4~|------------------------|
D|-6-6-6-6---2~------4-4-4-4--4~|---6-6-6-6--2222-444444-|
A|-6-6-6-6---2~--x---4-4-4-4--2~|-x-6-6-6-6--2222-444444-|
E|-4-4-4-4---0~--x---2-2-2-2----|-x-4-4-4-4--0000-222222-|
Guitar 2
e|------------------------------|------------------------|
B|------------------------------|------------------------|
G|-66-6h8--66-6\4--6h8--6\4-6h8v|-66-6h8-6-6\4--6h8--6-66|
D|------------------------------|------------------------|
A|------------------------------|------------------------|
E|------------------------------|------------------------|

Guitar 1
E|------------------------------|-------------------------|
B|------------------------------|-------------------------|
G|----------------------------4~|-------------------------|
D|-6-6-6-6---2~------4-4-4-4--4~|---6-6-6-6--22-2-2--4~---|
A|-6-6-6-6---2~--x---4-4-4-4--2~|-x-6-6-6-6--22-2-2--4~---|
E|-4-4-4-4---0~--x---2-2-2-2----|-x-4-4-4-4--00-0-0--2~---|
Guitar 2
e|------------------------------|-------------------------|
B|------------------------------|-------------------------|
G|-66-6h8--66-6\4--6h8--6\4-6h8v|-66-6h8-6-6\4--6h8--6-6v-|
D|------------------------------|-------------------------|
A|------------------------------|-------------------------|
E|------------------------------|-------------------------|

Outro (played with acoustic effects)
E|------------------------------------|--------------------------------|
B|------------------------------------|--------------------------------|
G|-44---------------------------------|-44-----------------------------|
D|-44-----4-22-----4-66-----4-2-----4-|-44-----4-22-----4-66-----4-2-2-|
A|-22-xxx-4-22-xxx-4-66-xxx-4-2-222-4-|-22-xxx-4-22-xxx-4-66-xxx-4-2-2-|
E|----xxx-2-00-xxx-2-44-xxx-2-0-000-2-|----xxx-2-00-xxx-2-44-xxx-2-0-0-|
PM                              ***

Order

Intro
Intro cont
Verse 
Pre Chorus 
Chorus
Intro cont x2
Verse 2
Verse 2 cont
Pre Chorus
Chorus
Bridge
Bridge cont
Pre solo
Solo
Outro





Comments


Popular Fall Out Boy tabs & chords
I Dont Care 4 Bass Tabs
What A Catch Donnie Bass Tabs
Just One Yesterday 1 Chords
The Shipped Gold Standard Chords
What A Catch Donnie 3 Chords
Beat It 3 Tabs
From Plastic To Skin Tabs
I Slept With Someone In Fall Out Boy And All I Got Was This Stupid Song Written About Me 1 Tabs
Our Lawyer Made Us Change The Name Of This Song So We Wouldnt Get Sued 1 Tabs
Miss Missing You Ukulele


Song lyrics



↑ Back to top | Tablatures and chords are parodies/interpretations of the original songs. You may use it for private study, scholarship, research or language learning purposes only
© 2014 AZChords.com Contact us | Privacy policy | DMCA | Add/correct tabs | Request tabs | Top 50 tabs