» » »

Fall Out Boy, 7 Minutes In Heaven (Atavan Halen) Bass tabs (ver.2)

Artists:  A B C D E F G H I J K L M N O P Q R S T U V W X Y Z # 

7 Minutes In Heaven (Atavan Halen) Bass tabs (ver.2)

Fall Out Boy Tabs
 Rating:
4/5 (4 votes)
7 Minutes In Heaven (Atavan Halen) lessons Tabs too difficult? Try these video lessons and learn fast
                -----------------------------------------------------------------------------
              7 MINUTES IN HEAVEN (ATAVAN HALEN) - FALL OUT BOY
-----------------------------------------------------------------------------


Tuning: Standard

G|-------------------------|
D|-------------------------|
A|----Just Guitar intro----|
E|-------------------------|

INTRO/PRE CHORUS/POST CHORUS
G|-------------------------------------|
D|-------------------------------------|
A|--------------2----------------------|
E|--4444-0-2222-----4444-0000-222/4\2--|

VERSE
     ^ ^ ^ ^ ^ ^ ^ ^  ^ ^ ^ ^ ^ ^ ^ ^  ^ ^ ^ ^ ^ ^ ^ ^  ^ ^ ^ ^ ^ ^  ^ ^
G|------------------------------------------------------------------------|
D|------------------------------------------------------------------------|
A|------------------------------------------------------------------------|
E|--4444444444444444-9999999999999999-0000000000000000-777777777777-6666--|

     ^ ^ ^ ^ ^ ^ ^ ^  ^ ^ ^ ^ ^ ^ ^ ^  ^ ^ ^ ^ ^ ^ ^ ^ ^ ^ ^ ^ ^ ^ ^ ^
G|----------------------------------------------------------------------|
D|----------------------------------------------------------------------|
A|----------------------------------------------------------------------|
E|--4444444444444444-9999999999999999-00000000000000000000000000000000--|

CHORUS
G|-------------------------|
D|-------------------------|
A|--22---------------------|
E|-----2-00-2-44-2-00-0h2--|

BRIDGE
G|--------------------------------------------------------------|
D|--------------------------------------------------------------|
A|--------------------------------------------------------------|
E|--4444444444444444-9999999999999999-0000000000000000-0-0-0-0--|
    **************** **************** ****************
G|----------------------------------|
D|----------------------------------|
A|----------------------------------|
E|--44---022---4444-0000-2222-2222--|
                              ****
G|----------------------------------|
D|----------------------------------|
A|----------2-----------------------|
E|--44-0-22-----4444-0000-22222222--|

SOLO
G|----------------------------------|
D|----------------------------------|
A|----------2-----------------------|
E|--44-0-22-----4444-0000-22222222--|

ORDER
-----
(just guitar intro)
INTRO X2
VERSE
PRE CHORUS X2
CHORUS X2
POST CHORUS X2
VERSE
PRE CHORUS X2
CHORUS X2
(muted guitar bridge)
BRIDGE
SOLO X2
(clean guitar outro)

| /  slide up
| \  slide down
| h  hammer-on
| p  pull-off
| ~  vibrato
| +  harmonic
| *  palm-muted note
| ^  up stroke
=============================================================================
            
Submit corrections

comments powered by Disqus
↑ Back to top | Fall Out Boy Bass for 7 Minutes In Heaven (Atavan Halen). Lyrics for acoustic guitar and electric guitar. Tablatures and chords are parodies/interpretations of the original songs. You may use it for private study, scholarship, research or language learning purposes only