» » »

7 Minutes In Heaven (Atavan Halen) Bass tabs (ver.1)

Artists:  A B C D E F G H I J K L M N O P Q R S T U V W X Y Z # 

7 Minutes In Heaven (Atavan Halen) Bass tabs (ver.1)

Fall Out Boy
Rating:
0/5 (0 votes)

Hard to play? Try these video lessons and learn fast.
                G|-------------------------------|-------------------------------|
D|-------------------------------|-------------------------------|
A|-------------2-----------------|-------------2-----------------|
E|-4444-0-2222---444-000-222h4p2-|-4444-0-2222---444-000-222h4p2-|

|---------------------------------------------------------------------|
|---------------------------------------------------------------------|
|------------------4444444444444444------------------2222222222221111-|
|-4444444444444444------------------0000000000000000------------------|

|--------------------------------------------------------------------|
|--------------------------------------------------------------------|
|------------------4444444444444444----------------------------------|
|-4444444444444444------------------00000000000000000000000000000000-|

|-------------------------------|-------------------------------|
|-------------------------------|-------------------------------|
|-------------2-----------------|-------------2-----------------|
|-4444-0-2222---444-000-222h4p2-|-4444-0-2222---444-000-222h4p2-|

|----------------------------------|----------------------------------|
|----------------------------------|----------------------------------|
|-2-2------------------------------|-2-2------------------------------|
|-----xx-2-0-0-xx-2-4-4-xx-2-0-0h2-|-----xx-2-0-0-xx-2-4-4-xx-2-0-0h2-|

|----------------------------------|----------------------------------|
|----------------------------------|----------------------------------|
|-2-2------------------------------|-2-2------------------------------|
|-----xx-2-0-0-xx-2-4-4-xx-2-0-0h2-|-----xx-2-0-0-xx-2-4-4-xx-2-0-0h2-|

|-------------------------------|-------------------------------|
|-------------------------------|-------------------------------|
|-------------2-----------------|-------------2-----------------|
|-4444-0-2222---444-000-222h4p2-|-4444-0-2222---444-000-222h4p2-|

|---------------------------------------------------------------------|
|---------------------------------------------------------------------|
|------------------4444444444444444------------------2222222222221111-|
|-4444444444444444------------------0000000000000000------------------|

|--------------------------------------------------------------------|
|--------------------------------------------------------------------|
|------------------4444444444444444----------------------------------|
|-4444444444444444------------------00000000000000000000000000000000-|

|-------------------------------|-------------------------------|
|-------------------------------|-------------------------------|
|-------------2-----------------|-------------2-----------------|
|-4444-0-2222---444-000-222h4p2-|-4444-0-2222---444-000-222h4p2-|

|----------------------------------|----------------------------------|
|----------------------------------|----------------------------------|
|-2-2------------------------------|-2-2------------------------------|
|-----xx-2-0-0-xx-2-4-4-xx-2-0-0h2-|-----xx-2-0-0-xx-2-4-4-xx-2-0-0h2-|

|----------------------------------|----------------------------------|
|----------------------------------|----------------------------------|
|-2-2------------------------------|-2-2------------------------------|
|-----xx-2-0-0-xx-2-4-4-xx-2-0-0h2-|-----xx-2-0-0-xx-2-4-4-xx-2-0-0h2-|

Rest (Guitar only first time through)

|----------------------------------------------------------------|
|----------------------------------------------------------------|
|-----------------4444444444444444-------------------------------|
|-4444444444444444----------------000000000000000000—00—00—00—00-|

|----------------------------------|
|----------------------------------|
|----------------------------------|
|-44------22------4444000022222222-|

|--------------------------------|--------------------------------|
|--------------------------------|--------------------------------|
|-------------2------------------|-------------2------------------|
|-4444-0—2222---4444000022222222-|-4444-0—2222---4444000022222222-|

|--------------------------------|
|--------------------------------|
|-------------2------------------|
|-4444-0—2222---4444000022222222-|  

                                 End
            
Hard to play? Try these video lessons and learn fast. | Correct




comments powered by Disqus
↑ Back to top | Tablatures and chords are parodies/interpretations of the original songs. You may use it for private study, scholarship, research or language learning purposes only