» » »

Idiot Boyfriend Bass tabs (ver.1)

Artists:  A B C D E F G H I J K L M N O P Q R S T U V W X Y Z # 

Idiot Boyfriend Bass tabs (ver.1)

Fallon Jimmy
Rating:
0/5 (0 votes)

Hard to play? Try these video lessons and learn fast.
                ////main riff (0:00-0:46)
G|---4---6---8--R----9-----11-11\\\-|
D|--------------R-------------------|
A|-2---4---6----R--7---7h9----------|
E|--------------R-------------------|


////chorus(0:46-1:07)
G|-------5---7---5-----|
D|---------------------|
A|-7-5-3---5---3---1-1-|
E|---------------------|

G|-------5-----3---3-|
D|-------------------|
A|-7-5-3---1-1---1---|
E|-------------------|

G|-------5---7---5---3-|
D|---------------------|
A|-7-5-3---5---3---1---|
E|---------------------|

G|-------5-----10---10---10----|
D|-----------------------------|
A|-7-5-3---8-8----8----8/--8-8-|
E|-----------------------------|


////main riff(1:08-1:45)


////chorus(1:46-2:07)


////main riff(2:07-2:58)


////rest(1:58-3:03)


////interlude(3:04-3:12)
G|-----------(3)--------------------11-11\\\-|
D|-------------------------------------------|
A|-1-1-1-x-x-x-x-x-1-1-1-x-x-x-/7h9----------|
E|-------------------------------------------|


////main riff(3:13-3:51)
            
Hard to play? Try these video lessons and learn fast. | Correct




comments powered by Disqus
↑ Back to top | Tablatures and chords are parodies/interpretations of the original songs. You may use it for private study, scholarship, research or language learning purposes only