» » »

Falling Up, Searchlights Tabs (ver.1)

Artists:  A B C D E F G H I J K L M N O P Q R S T U V W X Y Z # 

Searchlights Tabs (ver.1)

Falling Up Tabs
Rating:
3/5 (2 votes)
Searchlights lessons Tabs too difficult? Try these video lessons and learn fast
                ---------------------------------------------------------------------------
---------------------------------------------------------------------------

Tuning: Drop D-izzle
*
(pm) = palm mute
h = hammer
p = pull off

* Note:
The 11's are not 1's. lol

Intro
e|-------------------------------------------------------------------------|
B|-------------------------------------------------------------------------|
G|-------------------------------------------------------------------------|
D|111111----111111--10/12121212--(X4)-111111----111111--9-7h9p0------------|
A|-9-9-9-----9-9-9---------------------9-9-9-----9-9-9---------------------|
D|-9-9-9-----9-9-9---------------------9-9-9-----9-9-9---------------------|

Verse/Prechorus 
*I just chill during most of the verse... personal preference.
e|-------------------------------------------------------------------------|
B|-------------------------------------------------------------------------|
G|-----------------------99999999--11111111111111--------------------------|
D|--222-222-2-222--------77777777---9-9-9-9-9-9-9--------------------------|
A|--222-222-2-222--(X2)----------------------------------------------------|
D|--222-222-2-222----------------------------------------------------------|

Chorus
**You can play the chorus w/out the palm mute but its fun to play it with it 
e|-------------------------------------------------------------------------|
B|-------------------------------------------------------------------------|
G|-------------------------------------------------------------------------|
D|-(0)-9-101010-999-777--(0)-5-5-(0)-2-2-----------------------------------|
A|-(0)-9-----------------(0)-5-5-(0)-2-2-----------------------------------|
D|-(0)-9-----------------(0)-5-5-(0)-2-2-----------------------------------|
  (pm)                  (pm)    (pm)
Bridge
e|-------------------------------------------------------------------------|
B|-------------------------------------------------------------------------|
G|-------------------------------------------------------------------------|
D|--55XXXXXXXXXXXX--77XXXXXXXXXXXX--22XXXXXXXXXXXX--2-6-8-10-12------------|
A|--55XXXXXXXXXXXX--77XXXXXXXXXXXX--22XXXXXXXXXXXX--2-4-6--8-10------------|
D|--55XXXXXXXXXXXX--77XXXXXXXXXXXX--22XXXXXXXXXXXX--2-4-6--8-10------------|
*When it speeds up just play the bridge part w/out the X's

Replay Intro

Replay Chorus 

End of Song!
            
Submit corrections

comments powered by Disqus
↑ Back to top | Falling Up Tabs for Searchlights. Lyrics for acoustic guitar and electric guitar. Tablatures and chords are parodies/interpretations of the original songs. You may use it for private study, scholarship, research or language learning purposes only