» » »

Hotel Aquarium Tabs (ver.1)

Artists:  A B C D E F G H I J K L M N O P Q R S T U V W X Y Z # 

Hotel Aquarium Tabs (ver.1)

Falling Up
Rating:
5/5 (8 votes)

Hard to play? Try these video lessons and learn fast.
                Hey, this is my first tab so please rate and let me know what you think.
PM= Palm Mute
H= Hammer On
P= Pull Off

Intro:  (0:00-0:15)           Guitar 1
E|-------------------------------------------------------------------------|
B|----------------------------------------8---8---7-7-----10-10------------|
G|------9-9-----9-9-----9-9-----9-9---------9---9-----7-7-------7-7--------|
D|-------------------------------------------------------------------------|
A|----------7-7-----7-7-----7-7-----7-7------------------------------------|
D|-------------------------------------------------------------------------|
        |-------------2x--------------|   

E|-------------------------------------------------------------------------|
B|----------------------------------------8---8---7-7-----10-10------------|
G|------9-9-----9-9-----9-9-----9-9---------9---9-----7-7-------7-7--------|
D|-------------------------------------------------------------------------|
A|----------7-7-----7-7-----7-7-----7-7------------------------------------|
D|-------------------------------------------------------------------------|

Intro:  (0:03-0:15)           Guitar 2
E|-------------------------------------------------------------------------|
B|-------------------------------------------------------------------------|
G|-------------------------------------------------------------------------|
D|-----2-2-------------10-10--------------5-5-5-5-0-0-0--------------------|
A|-----2-2-------------10-10--------------5-5-5-5-0-0-0--------------------|
D|-----2-2-------------10-10--------------5-5-5-5-0-0-0--------------------|
       |---------------------2x---------------------|

Verse:  (0:16-0:31)           Guitar 1
E|-------------------------------------------------------------------------|
B|-------------------------------------------------------------------------|
G|-------------------------------------------------------------------------|
D|----------------------------------0--------------------------------------|
A|-(quiet until end)-7-9-10-12--10-----------------------------------------|
D|-------------------------------------------------------------------------|
                     |------2x------|

Verse:  (0:16-0:31)           Guitar 2
E|-------------------------------------------------------------------------|
B|-------------------------------------------------------------------------|
G|-------------------------------------------------------------------------|
D|-(quiet until end)-7-7-7-7-7--10-10-10-----------------------------------|
A|-------------------7-7-7-7-7--10-10-10-----------------------------------|
D|-------------------7-7-7-7-7--10-10-10-----------------------------------|
                     |--------2x-------|

Verse:  (0:32-0:37)           Guitar 1 Only
E|-------------------------------------------------------------------------|
B|-------------------------------------------------------------------------|
G|-------------7-7-7-7---------9-9-9-9------7------------------------------|
D|-----7-7-7-7---------7-7-7-7----------7-9-----7---5-7-5-7----------------|
A|-------------------------------------------------------------------------|
D|-------------------------------------------------------------------------|
                     
Chorus:  (0:38-1:01)          Guitar 1
E|-------------------------------------------------------------------------|
B|----------------------------------------8---8---7-7-----10-10------------|
G|------9-9-----9-9-----9-9-----9-9---------9---9-----7-7-------7-7--------|
D|-------------------------------------------------------------------------|
A|----------7-7-----7-7-----7-7-----7-7------------------------------------|
D|-------------------------------------------------------------------------|
        |----------------------------4x---------------------------|   

Chorus: (0:38-1:01)           Guitar 2
E|-------------------------------------------------------------------------|
B|-------------------------------------------------------------------------|
G|-------------------------------------------------------------------------|
D|-----2-2--------------10-10--------------5-5-5-5-0-0-0-------------------|
A|-----2-2--------------10-10--------------5-5-5-5-0-0-0-------------------|
D|-----2-2--------------10-10--------------5-5-5-5-0-0-0-------------------|
       |------------------------4x---------------------|
				   *Pause*
Verse:  (1:03-1:20)           Guitar 1
E|-------------------------------------------------------------------------|
B|-------------------------------------------------------------------------|
G|-------------------------------------------------------------------------|
D|----------------------------------0--------------------------------------|
A|-(quiet until end)-7-9-10-12--10-----------------------------------------|
D|-------------------------------------------------------------------------|
                     |------2x------|

Verse:  (1:03-1:20)           Guitar 2
E|-------------------------------------------------------------------------|
B|-------------------------------------------------------------------------|
G|-------------------------------------------------------------------------|
D|-(quiet until end)-7-7-7-7-7--10-10-10-----------------------------------|
A|-------------------7-7-7-7-7--10-10-10-----------------------------------|
D|-------------------7-7-7-7-7--10-10-10-----------------------------------|
                     |--------2x-------|

Verse:  (1:21-1:26)           Guitar 1 Only
E|-------------------------------------------------------------------------|
B|-------------------------------------------------------------------------|
G|-------------7-7-7-7---------9-9-9-9------7------------------------------|
D|-----7-7-7-7---------7-7-7-7----------7-9-----7---5-7-5-7----------------|
A|-------------------------------------------------------------------------|
D|-------------------------------------------------------------------------|


Chorus:  (1:27-1:50)          Guitar 1
E|-------------------------------------------------------------------------|
B|----------------------------------------8---8---7-7-----10-10------------|
G|------9-9-----9-9-----9-9-----9-9---------9---9-----7-7-------7-7--------|
D|-------------------------------------------------------------------------|
A|----------7-7-----7-7-----7-7-----7-7------------------------------------|
D|-------------------------------------------------------------------------|
        |----------------------------4x---------------------------|   

Chorus: (1:27-1:50)           Guitar 2
E|-------------------------------------------------------------------------|
B|-------------------------------------------------------------------------|
G|-------------------------------------------------------------------------|
D|-----2-2--------------10-10--------------5-5-5-5-0-0-0-------------------|
A|-----2-2--------------10-10--------------5-5-5-5-0-0-0-------------------|
D|-----2-2--------------10-10--------------5-5-5-5-0-0-0-------------------|
       |------------------------4x---------------------|

Bridge: (1:51-1:58)		   Guitars 1&2
E|-------------------------------------------------------------------------|
B|-------------------------------------------------------------------------|
G|-------------------------------------------------------------------------|
D|-----7-7-7-7-7-7-7-7-7-7-7-7-7-7-------7-7-7----------7-7-7-7-7-7-7-7----|
A|-----7-7-7-7-7-7-7-7-7-7-7-7-7-7-------7-7-7----------7-7-7-7-7-7-7-7----|
D|-----7-7-7-7-7-7-7-7-7-7-7-7-7-7-------7-7-7----------7-7-7-7-7-7-7-7----|
       |----PM-----|

Bridge: (1:59-2:04)		   Guitars 1&2
E|-------------------------------------------------------------------------|
B|-------------------------------------------------------------------------|
G|-------------------------------------------------------------------------|
D|-----10-10-10----------10-10-10-10-10-10-10-10---------------------------|
A|-----10-10-10----------10-10-10-10-10-10-10-10---------------------------|
D|-----10-10-10----------10-10-10-10-10-10-10-10---------------------------|
       
Bridge: (2:05-2:09)		   Guitars 1&2
E|-------------------------------------------------------------------------|
B|-------------------------------------------------------------------------|
G|-------------------------------------------------------------------------|
D|-----7-7-7----------7-7-7-7-7-7-7-7--------------------------------------|
A|-----7-7-7----------7-7-7-7-7-7-7-7--------------------------------------|
D|-----7-7-7----------7-7-7-7-7-7-7-7--------------------------------------|



Bridge: (2:10-2:15)		   Guitars 1&2
E|-------------------------------------------------------------------------|
B|-------------------------------------------------------------------------|
G|-------------------------------------------------------------------------|
D|-----10-10-10-10-10-10-10-10-12-12-12-12-12-12-12-12---------------------|
A|-----10-10-10-10-10-10-10-10-12-12-12-12-12-12-12-12---------------------|
D|-----10-10-10-10-10-10-10-10-12-12-12-12-12-12-12-12---------------------|

Chorus:  (2:16-2:18)          Guitar 1 Only (Weird Phaser/Flanger effect)
E|-------------------------------------------------------------------------|
B|-------------------------------------------------------------------------|
G|------9-9-----9-9-----9-9-----9-9----------------------------------------|
D|-------------------------------------------------------------------------|
A|----------7-7-----7-7-----7-7-----7-7------------------------------------|
D|-------------------------------------------------------------------------|

Chorus: (2:19-2:21)           Guitar 2 Only
E|-------------------------------------------------------------------------|
B|-------------------------------------------------------------------------|
G|-------------------------------------------------------------------------|
D|-----2-2--------------10-10----------------------------------------------|
A|-----2-2--------------10-10----------------------------------------------|
D|-----2-2--------------10-10----------------------------------------------|

Chorus: (2:22-2:24)            Guitar 1
E|-------------------------------------------------------------------------|
B|-----8---8---7-7-----10-10-----------------------------------------------|
G|-------9---9-----7-7-------7-7-------------------------------------------|
D|-------------------------------------------------------------------------|
A|-------------------------------------------------------------------------|
D|-------------------------------------------------------------------------|

Chorus: (2:22-2:24)            Guitar 2
E|-------------------------------------------------------------------------|
B|-------------------------------------------------------------------------|
G|-------------------------------------------------------------------------|
D|-----5-5-5-5-0-0-0-------------------------------------------------------|
A|-----5-5-5-5-0-0-0-------------------------------------------------------|
D|-----5-5-5-5-0-0-0-------------------------------------------------------|

Chorus:  (2:25-2:42)          Guitar 1
E|-------------------------------------------------------------------------|
B|----------------------------------------8---8---7-7-----10-10------------|
G|------9-9-----9-9-----9-9-----9-9---------9---9-----7-7-------7-7--------|
D|-------------------------------------------------------------------------|
A|----------7-7-----7-7-----7-7-----7-7------------------------------------|
D|-------------------------------------------------------------------------|
        |----------------------------3x---------------------------|   




Chorus: (2:25-2:42)           Guitar 2
E|-------------------------------------------------------------------------|
B|-------------------------------------------------------------------------|
G|-------------------------------------------------------------------------|
D|-----2-2--------------10-10--------------5-5-5-5-0-0-0-------------------|
A|-----2-2--------------10-10--------------5-5-5-5-0-0-0-------------------|
D|-----2-2--------------10-10--------------5-5-5-5-0-0-0-------------------|
       |------------------------3x---------------------|

I’m pretty sure this is 100% correct, so please comment if I messed up. Thanks.
            
Hard to play? Try these video lessons and learn fast. | Correct




comments powered by Disqus
↑ Back to top | Tablatures and chords are parodies/interpretations of the original songs. You may use it for private study, scholarship, research or language learning purposes only