>
 >
Goodnight Gravity

Goodnight Gravity Guitar Tabs

Falling Up - Goodnight Gravity chords, tabs, tablatures, lyrics

Guitar lessons | Add/correct | Request | Top 50 tabs Artists:  A B C D E F G H I J K L M N O P Q R S T U V W X Y Z 0-9

Goodnight Gravity Guitar Tabs – Falling Up

CD, Sheet music, Poster

Do you like Goodnight Gravity? Share with your friends now
Bass TabsChordsTabsUkulele
----------------------------------------------------------------------------
----------------------------------------------------------------------------

Tuning: Drop D

Intro
E|-2222----5555-2h32-2222----5555---------------------------------55-22h32-|
B|-----3333--------------3333----2222-555-35h73-55-35h73-555-35h73---------|
G|-------------------------------------------------------------------------|
D|-------------------------------------------------------------------------|
A|-------------------------------------------------------------------------|
D|-------------------------------------------------------------------------|

Intro
E|-------------------------------------------------------------------------|
B|-------------------------------------------------------------------------|
G|-------------------------------------------------------------------------|
D|--0---------8---------XXXX---5--------9--------5--------7----------------|
A|--0-(16x's)-8-(12x's)-XXXX---5-(8x's)-9-(8x's)-5-(8x's)-7-(8x's)---------|
D|--0---------8---------XXXX---5--------9--------5--------7----------------|

Verse
E|-------------------------------------------------------------------------|
B|-------------------------------------------------------------------------|
G|-------------------------------------------------------------------------|
D|---9-----5-----0-----7-----7s8-----9-----5-----0-----7-------------------|
A|---9-----5-----0-----7-----7s8-----9-----5-----0-----7-------------------|
D|---9-----5-----0-----7-----7s8-----9-----5-----0-----7-------------------|
(Each of these has 8 counts.)

Pre-Chorus
E|-------------------------------------------------------------------------|
B|-------------------------------------------------------------------------|
G|-------------------------------------------------------------------------|
D|-----5-----0-----5-----7-------------------------------------------------|
A|-----5-----0-----5-----7-------------------------------------------------|
D|-----5-----0-----5-----7-------------------------------------------------|
(Each of these has 8 counts.)

Chorus
E|-------------------------------------------------------------------------|
B|-------------------------------------------------------------------------|
G|-------------------------------------------------------------------------|
D|-------0---------8---------XXXX---------5---------9---------5---------7--|
A|-------0---------8---------XXXX---------5---------9---------5---------7--|
D|-------0---------8---------XXXX---------5---------9---------5---------7--|
    "Goodnight"  "Kept"                "Always"   "One"    "Always"   "One"

Verse
E|-------------------------------------------------------------------------|
B|-------------------------------------------------------------------------|
G|-------------------------------------------------------------------------|
D|---9-----5-----0-----7-----7s8-----9-----5-----0-----7-------------------|
A|---9-----5-----0-----7-----7s8-----9-----5-----0-----7-------------------|
D|---9-----5-----0-----7-----7s8-----9-----5-----0-----7-------------------|
(Each of these has 8 counts.)

Pre-Chorus
E|-------------------------------------------------------------------------|
B|-------------------------------------------------------------------------|
G|-------------------------------------------------------------------------|
D|-----5-----0-----5-----7-------------------------------------------------|
A|-----5-----0-----5-----7-------------------------------------------------|
D|-----5-----0-----5-----7-------------------------------------------------|
(Each of these has 8 counts.)

Chorus
E|-------------------------------------------------------------------------|
B|-------------------------------------------------------------------------|
G|-------------------------------------------------------------------------|
D|-------0---------8---------XXXX---------5---------9---------5---------7--|
A|-------0---------8---------XXXX---------5---------9---------5---------7--|
D|-------0---------8---------XXXX---------5---------9---------5---------7--|
    "Goodnight"  "Kept"                "Always"   "One"    "Always"   "One"

Bridge
E|-------------------------------------------------------------------------|
B|-------------------------------------------------------------------------|
G|-------------------------------------------------------------------------|
D|-------7-------5-------0-------7--7-7-------7-------5-------0-------7----|
A|-------7-------5-------0-------7--7-7-------7-------5-------0-------7----|
D|-------7-------5-------0-------7--7-7-------7-------5-------0-------7----|
       "And" "Morning" "Find"  "Find"       "And" "Morning" "Find"  "Find"

Chorus
E|-2222----5555-2h32-2222----5555------------------------------------------|
B|-----3333--------------3333----2222--------------------------------------|
G|-------------------------------------------------------------------------|
D|-----------------------------------XXXX----5------9-----5-------7-----0--|
A|-----------------------------------XXXX----5------9-----5-------7-----0--|
D|-----------------------------------XXXX----5------9-----5-------7-----0--|
                                         "Always" "One" "Always" "One"(End)

|  /  slide up
|  \  slide down
|  h  hammer-on
|  p  pull-off
|  ~  vibrato
|  +  harmonic
|  x  mute note
============================================================================





Comments


Popular Falling Up tabs & chords
Arch To Achtilles Chords
Broken Heart Chords
Broken Heart 1 Chords
Into The Gravity Chords
Rooftops Chords
Bitter Sweet Tabs
Escalates Tabs
Golden Arrows Ukulele
Good Morning Planetarium Ukulele
Oceans Ukulele


Song lyrics



↑ Back to top | Tablatures and chords are parodies/interpretations of the original songs. You may use it for private study, scholarship, research or language learning purposes only
© 2014 AZChords.com Contact us | Privacy policy | DMCA | Add/correct tabs | Request tabs | Top 50 tabs