» » »

Good Morning Planetarium Chords (ver.2)

Artists:  A B C D E F G H I J K L M N O P Q R S T U V W X Y Z # 

Good Morning Planetarium Chords (ver.2)

Falling Up
Rating:
5/5 (3 votes)

Hard to play? Try these video lessons and learn fast.
                -------------------------------------------------------------------------------
                  Good Morning Planetarium - Falling Up
-------------------------------------------------------------------------------

Tuning: Half Step Down
      E    Cm   B    A    E2
e|----0----0----0----0----0--------------------------------------------------|
B|----0----0----0----0----0--------------------------------------------------|
G|----1----6----4----2----9--------------------------------------------------|
D|----2----6----4----2----9--------------------------------------------------|
A|----2----4----2----0----7--------------------------------------------------|
E|----0----0----0----0----0--------------------------------------------------|


Cm              B                
   The fight is over now, 
A                   E2     B
   the bright lights turned somehow
Cm                B                     
   The strength I have is running out, 
A              E2    B         
   the current pulls me down

A            B
   I'm wondering


           E                B             Cm       A
Is anybody out there, who's cold and incomplete, inside?
               E       B               Cm     A
I can hear Him calling Come and follow me, my child


Cm              B
   The twilight turns to day, 
A                E2   B  
   with all your love displayed
Cm                B
   The stars they bow in awe, 
A                E2     B
   when the lost return to you

A            B
   I'm wondering


           E                B             Cm       A
Is anybody out there, who's cold and incomplete, inside?
               E       B               Cm     A
I can hear Him calling Come and follow me, my child


E2          B                        Cm            B
Draws up my heart deep from the well deep from the well
            E2            B               Cm          B 
I know He's Finding every lost and broken dream 
            
Hard to play? Try these video lessons and learn fast. | Correct




comments powered by Disqus
↑ Back to top | Tablatures and chords are parodies/interpretations of the original songs. You may use it for private study, scholarship, research or language learning purposes only