» » »

Escalates Bass tabs (ver.1)

Artists:  A B C D E F G H I J K L M N O P Q R S T U V W X Y Z # 

Escalates Bass tabs (ver.1)

Falling Up
Rating:
1/5 (2 votes)
Tabs too difficult? Try these video lessons and learn fast.
                -------------------------------------------------------------------------------
-------------------------------------------------------------------------------

Tuning: Standard

Intro/Verse
G|-------------------------------------------------|
D|-------------------------------------------------| x2
A|-------------------------------------------------|
E|--9~----4-4-8-9--42-2---9~----4-4-8-9--42-2-4-8--|

Pre-Chorus
G|-----------------|
D|-----------------|
A|-----------------|
E|--2~----2--4--8--|

Chorus
G|---------------------------------------------------------|
D|---------------------------------------------------------| x2
A|---------------------------------------------------------|
E|--99-9-9-9-999-44-4-4-4-444-2-2--2-2-22~---4-4--4-4-44~--|

Verse
G|-------------------------------------------------|
D|-------------------------------------------------| x2
A|-------------------------------------------------|
E|--9~----4-4-8-9--42-2---9~----4-4-8-9--42-2-4-8--|

Pre-Chorus
G|-----------------|
D|-----------------|
A|-----------------|
E|--2~----2--4--8--|

Chorus
G|---------------------------------------------------------|
D|---------------------------------------------------------| x2
A|---------------------------------------------------------|
E|--99-9-9-9-999-44-4-4-4-444-2-2--2-2-22~---4-4--4-4-44~--|

Pre Bridge
G|----------------------------|
D|----------------------------|
A|----------------------------|
E|--9-9-9-9-8-8-8-8--2--2-2~--|

G|-------------------------------------------------------------------|
D|-------------------------------------------------------------------| x2
A|-------------------------------------------------------------------|
E|--9-9-9-9-9-9-9-9-4-4-4-4-4-4-4-4-6-6-6-6-6-6-6-6-2-2-2-2-2-2-2-2--|

Bass Solo
G|--------------------|
D|--------------------| x2
A|--------------------|
E|--99-9-9--9-202021--|

Chorus/Outro
G|-----------------------------|
D|-----------------------------|
A|-----------------------------|
E|--99-9-9-9-999-44-4-4-4-444--|

G|---------------------------------------------------------|
D|---------------------------------------------------------| x4
A|---------------------------------------------------------|
E|--99-9-9-9-999-44-4-4-4-444-2-2--2-2-22~---4-4--4-4-44~--|

G|------|
D|------|
A|------|
E|--2~--|

I’ve been looking for this for forever!!! So I finally did it myself :P


| /  slide up
| \  slide down
| h  hammer-on
| p  pull-off
| ~  let note ring
| +  harmonic
| x  Mute note
===============================================================================
            
Tabs too difficult? Try these video lessons and learn fast.


comments powered by Disqus
↑ Back to top | Tablatures and chords are parodies/interpretations of the original songs. You may use it for private study, scholarship, research or language learning purposes only