>
 >
Bitter Sweet

Bitter Sweet Guitar Tabs

Falling Up - Bitter Sweet chords, tabs, tablatures, lyrics

Guitar lessons | Add/correct | Request | Top 50 tabs Artists:  A B C D E F G H I J K L M N O P Q R S T U V W X Y Z 0-9

Bitter Sweet Guitar Tabs – Falling Up

CD, Sheet music, Poster

Do you like Bitter Sweet? Share with your friends now
Tabs
-------------------------------------------------------------------------------
-------------------------------------------------------------------------------

Tuning: Drop D
Intro
guitar 1
e|---------------------------------------------------------------------------|
B|---------------------------------------------------------------------------|
G|---------------------------------------------------------------------------|
D|-9-0-9-0-9-0-9-0-9---------------------------------------------------------|
A|-9-0-9-0-9-0-9-0-9---------------------------------------------------------|Repeat getting 
D|-9-0-9-0-9-0-9-0-9---------------------------------------------------------|increasingly louder

both guitars
e|----------------------------------------------------------------------------|
B|----------------------------------------------------------------------------|
G|----------------------------------------------------------------------------|
D|-9-11-11-9-11-11-9-11-11-11-12-11--9999999--444444---7777777777-------------| listen to music
A|-7-9--9--7-9--9--7-9--9--9--9--9---7777777--222222---5555555555-------------| and work out strumming 
D|-7-9--9--7-9--9--7-9--9--9--9--9---7777777--222222---5555555555-------------| pattern

Verse

guitar 1

e|-------|--------------------------------------------------------------------|
B|-------|--------------------------------------------------------------------|
G|-------|--------------------------------------------------------------------|
D|-15-14-|---0xxxx-9-9-9-0xxxx-9-9-9-0xxxx-9-9-9-0xxxx--quickly play----9-----|
A|-15-14-|---0xxxx-9-9-9-0xxxx-9-9-9-0xxxx-9-9-9-0xxxx------------------7-----|
D|-15-14-|---0xxxx-9-9-9-0xxxx-9-9-9-0xxxx-9-9-9-0xxxx------------------7-----|

e|---------------------------------------------------------------------------|
B|---------------------------------------------------------------------------|
G|---------------------------------------------------------------------------|
D|--0xxxx-9-9-9-0xxxx-9-9-9-0xxxx-9-9-9-0xxxx-9------------------------------|
A|--0xxxx-9-9-9-0xxxx-9-9-9-0xxxx-9-9-9-0xxxx-9------------------------------|
D|--0xxxx-9-9-9-0xxxx-9-9-9-0xxxx-9-9-9-0xxxx-9------------------------------|

guitar 2

e|---------------------------------------------------------------------------|
B|--8p7----------------------------------------------------------------------|
G|---------------------------------------------------------------------------|
D|-----9---------------------------------------------------------------------|repeat 8 times
A|---------------------------------------------------------------------------|throughout verse
D|---------------------------------------------------------------------------|

pre-chorus
both guitars
 
e|---------------------------------------------------------------------------|
B|---------------------------------------------------------------------------|
G|---------------------------------------------------------------------------|
D|--------777777777---999999999----------------------------------------------|
A|--------555555555---777777777----------------------------------------------|
D|--------555555555---777777777----------------------------------------------|

chorus 
both guitars
e|---------------------------------------------------------------------------|
B|---------------------------------------------------------------------------|
G|---------------------------------------------------------------------------|
D|-9-11-11-9-11-11-9-11-11-11-12-11--9999999--444444---7777777777------------| 
A|-7-9--9--7-9--9--7-9--9--9--9--9---7777777--222222---5555555555------------|  
D|-7-9--9--7-9--9--7-9--9--9--9--9---7777777--222222---5555555555------------| x2

verse 2

e|---------------------------------------------------------------------------|
B|---------------------------------------------------------------------------|
G|---------------------------------------------------------------------------|
D|--0xxxx-9-9-9-0xxxx-9-9-9-0xxxx-9-9-9-0xxxx-9------------------------------|
A|--0xxxx-9-9-9-0xxxx-9-9-9-0xxxx-9-9-9-0xxxx-9------------------------------|
D|--0xxxx-9-9-9-0xxxx-9-9-9-0xxxx-9-9-9-0xxxx-9------------------------------|

e|---------------------------------------------------------------------------|
B|---------------------------------------------------------------------------|
G|---------------------------------------------------------------------------|
D|-11-0--9~-0-9~-0-9~-0-9~---------------------------------------------------|
A|-9--0--7~-0-7~-0-7~-0-7~---------------------------------------------------|
D|-9--0--7~-0-7~-0-7~-0-7~---------------------------------------------------|

guitar 2

e|---------------------------------------------------------------------------|
B|--8p7----------------------------------------------------------------------|
G|---------------------------------------------------------------------------|
D|-----9---------------------------------------------------------------------|repeat 8 times
A|---------------------------------------------------------------------------|throughout verse
D|---------------------------------------------------------------------------|

pre-chorus
both guitars
 
e|---------------------------------------------------------------------------|
B|---------------------------------------------------------------------------|
G|---------------------------------------------------------------------------|
D|--------777777777---999999999----------------------------------------------|
A|--------555555555---777777777----------------------------------------------|
D|--------555555555---777777777----------------------------------------------|

chorus 2
both guitars
e|---------------------------------------------------------------------------|
B|---------------------------------------------------------------------------|
G|---------------------------------------------------------------------------|
D|-9-11-11-9-11-11-9-11-11-11-12-11--9999999--444444---7777777777------------| 
A|-7-9--9--7-9--9--7-9--9--9--9--9---7777777--222222---5555555555------------|  
D|-7-9--9--7-9--9--7-9--9--9--9--9---7777777--222222---5555555555------------| x2

bridge
guitar 1
e|---------------------------------------------------------------------------|
B|---------------------------------------------------------------------------|
G|---------------------------------------------------------------------------|
D|-9-0-9-0-9-0-9-0-9---------------------------------------------------------|
A|-9-0-9-0-9-0-9-0-9---------------------------------------------------------|Repeat getting 
D|-9-0-9-0-9-0-9-0-9---------------------------------------------------------|increasingly louder

ACOUSTIC GUITAR in standard tuning
e|--00000000--00000000-----------------------------------------------------------------------|
B|--33333333--00000000-----------------------------------------------------------------------|
G|--22222222--22222222-----------------------------------------------------------------------|
D|--00000000--22222222-----------------------------------------------------------------------|
A|--00000000--00000000-----------------------------------------------------------------------|
E|--33333333--00000000-----------------------------------------------------------------------|

both guitars
e|---------------------------------------------------------------------------|
B|---------------------------------------------------------------------------|
G|---------------------------------------------------------------------------|
D|--7~~~-7777--9~~~-9999-----------------------------------------------------|
A|--5~~~-5555--7~~~-7777-----------------------------------------------------|
D|--5~~~-5555--7~~~-7777-----------------------------------------------------| x3

guitar 1

e|---------------------------------------------------------------------------|
B|---------------------------------------------------------------------------|  played very quickly
G|---------------------------------------------------------------------------|
D|-0-7-5-0-3-----------------------------------------------------------------|
A|-0-7-5-0-3-----------------------------------------------------------------|
D|-0-7-5-0-3-----------------------------------------------------------------| x16

guitar 2

e|---------------------------------------------------------------------------|
B|---------------------------------------------------------------------------|
G|---------------------------------------------------------------------------|
D|--10---11------------------------------------------------------------------|
A|--x----x-------------------------------------------------------------------|
D|--8----9-------------------------------------------------------------------| x8

chorus final 
both guitars
e|---------------------------------------------------------------------------|
B|---------------------------------------------------------------------------|
G|---------------------------------------------------------------------------|
D|-9-11-11-9-11-11-9-11-11-11-12-11--9999999--444444---7777777777------------| 
A|-7-9--9--7-9--9--7-9--9--9--9--9---7777777--222222---5555555555------------|  
D|-7-9--9--7-9--9--7-9--9--9--9--9---7777777--222222---5555555555------------| x2


| /  slide up
| \  slide down
| h  hammer-on
| p  pull-off
| ~  vibrato
| +  harmonic
| x  Mute note
===============================================================================





Comments


Popular Falling Up tabs & chords
Escalates Bass Tabs
A Guide To Marine Life Chords
Blue Ghost Chords
Home Chords
Arch To Achtilles Ukulele
Diamnds Ukulele
Gathering Ukulele
Goddess Of The Dayspring Am I Ukulele
Goodnight Gravity Ukulele
Home Ukulele


Song lyrics



↑ Back to top | Tablatures and chords are parodies/interpretations of the original songs. You may use it for private study, scholarship, research or language learning purposes only
© 2014 AZChords.com Contact us | Privacy policy | DMCA | Add/correct tabs | Request tabs | Top 50 tabs