>
 >
The Departure

The Departure Guitar Tabs

Falling In Reverse - The Departure chords, tabs, tablatures, lyrics

Guitar lessons | Add/correct | Request | Top 50 tabs Artists:  A B C D E F G H I J K L M N O P Q R S T U V W X Y Z 0-9

The Departure Guitar Tabs – Falling In Reverse

CD, Sheet music, Poster

Do you like The Departure? Share with your friends now
Tabs
----------------------------------------------------------------------------
                     The Departure- Falling In Reverse
----------------------------------------------------------------------------

Tuning: Drop C
(CGCFAD)

so this is all by ear so dont be harsh. but im pretty sure its at least 95% correct,
pitch is right and timing is pretty good, so enjoy! and if you have any corrections email
the adress above and help me out k haha and for all the beginners new to finger tapping 
and stuff, dont be intimidated, take everything one note at a time while listening to the
song and it should be almost perfect ^_^

Intro:

all palm muted... also this is the progression for every verse so get it down smooth
because you'll see it a lot! :)

(Do this whole section twice)
D|-----------------------------------------------------------|
A|-----------------------------------------------------------|
F|-7(x8)-9(x4)-11(x4)-9(x3)-7(x3)-6(x8)-7(x16)-4(x8)-6(x8)---|(X2)
C|-5(x8)-7(x4)--9(x4)-7(x3)-5(x3)-4(x8)-5(x16)-2(x8)-4(x8)---|
G|-----------------------------------------------------------|
C|-----------------------------------------------------------|
   x     x      x     x     x     x     x      x     x

D|-------------------------------------------------|
A|-------------------------------------------------|
F|-------------------------------------------------|
C|-----------------------(X2)----------------------|
G|-0-8-0---00-8-0--5/7-----------------------------|
C|-0-8-0---00-8-0--5/7-----------------------------|

Chorus:
now this is that really hard part but it sounds so kick-ass, and im pretty sure its like
99% correct if you play it right. its really just a bunch of pull-off's, tapping, and sliding

first part:
D|-7h9t14/15-7h9t12/14-7h9t14/15p14p12\10/12-|
A|-------------------------------------------|
F|-------------------------------------------|
C|-------------------------------------------|
G|-------------------------------------------|
C|-------------------------------------------|

second part:
e|-7h9t14/15-7h9t12/14-7h9t14/15/17p15p14h15-|
B|-------------------------------------------|
G|-------------------------------------------|
D|-------------------------------------------|
A|-------------------------------------------|
E|-------------------------------------------|

third part:
D|-17h18-15-15-12-12-7/9-15/14/12/10-9h10p9-5/7-|
A|----------------------------------------------|
F|----------------------------------------------|
C|----------------------------------------------|
G|----------------------------------------------|
C|----------------------------------------------|

second verse:
D|-----------------------------------------------------------|
A|-----------------------------------------------------------|
F|-7(x8)-9(x4)-11(x4)-9(x3)-7(x3)-6(x8)-7(x16)-4(x8)-6(x8)---|(X2)
C|-5(x8)-7(x4)--9(x4)-7(x3)-5(x3)-4(x8)-5(x16)-2(x8)-4(x8)---|
G|-----------------------------------------------------------|
C|-----------------------------------------------------------|
   x     x      x     x     x     x     x      x     x


D|------------------------------------------------------------|
A|------------------------------------------------------------|
F|-7(x16)------------------7(x16)-9(x16)----------------------|
C|-5(x16)------------------5(x16)-7(x16)----------------------|
G|--------0-8-0-00-8-0-5/7------------------0-8-0-00-0-5------|7(x2)
C|--------0-8-0-00-8-0-5/7------------------0-8-0-00-0-5------|7(x2)


so this part is just like the chorus instrumentally but instead he says "watch me as I
wave goodbye...." so im just gonna put the chorus here

chorus:
first part:
D|-7h9t14/15-7h9t12/14-7h9t14/15p14p12\10/12-|
A|-------------------------------------------|
F|-------------------------------------------|
C|-------------------------------------------|
G|-------------------------------------------|
C|-------------------------------------------|

second part:
e|-7h9t14/15-7h9t12/14-7h9t14/15/17p15p14h15-|
B|-------------------------------------------|
G|-------------------------------------------|
D|-------------------------------------------|
A|-------------------------------------------|
E|-------------------------------------------|

third part:
D|-17h18-15-15-12-12-7/9-15/14/12/10-9h10p9-5/7------------|
A|---------------------------------------------------------|
F|---------------------------------------------------------|
C|---------------------------------------------------------|
G|-----------------------------------------------0-8-0-5---|
C|-----------------------------------------------0-8-0-5---|


third vere:
its the same as every other verse but its strmmed, not palm muted...

D|-----------------------------------------------------------|
A|-----------------------------------------------------------|
F|-7(x8)-9(x4)-11(x4)-9(x3)-7(x3)-6(x8)-7(x16)-4(x8)-6(x6)---|(X2)
C|-5(x8)-7(x4)--9(x4)-7(x3)-5(x3)-4(x8)-5(x16)-2(x8)-4(x6)---|
G|-----------------------------------------------------------|
C|-----------------------------------------------------------|
 "PLEASE!tell me NOW, please just let me go. No!
D|-----------------------------------------------0-----------|
A|-------------------------------------------3----3----------|
F|--------------------------------------------0----0---------|
C|---------------------------------------------2-------------|
G|-0~~~~~~~~~~~~~~~~~~~~~~~~~~~~~~~~~~~~~~~~-----------------|
C|-0~~~~~~~~~~~~~~~~~~~~~~~~~~~~~~~~~~~~~~~~-----------------|

  this is the bridge and its got a similiar feel to the chorus but is one   little
section once and is played over a bunch of times

D|-17h18-15-15-14-14-7h9-17p15p14-12\10/12-------|(X16)
A|-----------------------------------------------|
F|-----------------------------------------------|
C|-----------------------------------------------|
G|-----------------------------------------------|
C|-----------------------------------------------|

rest of bridge:
"... SAVIOR!

D|----------------------------------------------|
A|----------------------------------------------|
F|---11(x8)-9(x8)-6(x8)-7(x24)-9(x8)-7(x4)-6(x4)|
C|----9(x8)-7(x8)-4(x8)-5(x24)-7(x8)-5(x4)-4(x4)|
G|----------------------------------------------|
C|----------------------------------------------|


D|---------------------------------------------------|
A|---------------------------------------------------|
F|---11(x8)-9(x8)-6(x8)-7(x8)-9(x3)-5(x3)-7(x3)-2(x8)|
C|----9(x8)-7(x8)-4(x8)-5(x8)-7(x3)-3(x3)-5(x3)-0(x8)|
G|---------------------------------------------------|
C|---------------------------------------------------|

D|----------------------------------------------------|
A|----------------------------------------------------|
F|-9(x3)-5(x3)-7(x3)-2(x8)----------------------------|
C|-7(x3)-3(x3)-5(x3)-0(x8)----------------------------|
G|----------------------------------------------------|
C|----------------------------------------------------|

finally the last part is the chorus just, with no words lol
outro:

first part:
D|-7h9t14/15-7h9t12/14-7h9t14/15p14p12\10/12-|
A|-------------------------------------------|
F|-------------------------------------------|
C|-------------------------------------------|
G|-------------------------------------------|
C|-------------------------------------------|

second part:
e|-7h9t14/15-7h9t12/14-7h9t14/15/17p15p14h15-|
B|-------------------------------------------|
G|-------------------------------------------|
D|-------------------------------------------|
A|-------------------------------------------|
E|-------------------------------------------|

third part:
D|-17h18-15-15-12-12-7/9-15/14/12/10-9h10p9-5/7-----|
A|--------------------------------------------------|
F|--------------------------------------------------|
C|--------------------------------------------------|
G|--------------------------------------------------|
C|--------------------------------------------------|

then one last time with an ending:


first part:
D|-7h9t14/15-7h9t12/14-7h9t14/15p14p12\10/12-|
A|-------------------------------------------|
F|-------------------------------------------|
C|-------------------------------------------|
G|-------------------------------------------|
C|-------------------------------------------|

second part:
e|-7h9t14/15-7h9t12/14-7h9t14/15/17p15p14h15-|
B|-------------------------------------------|
G|-------------------------------------------|
D|-------------------------------------------|
A|-------------------------------------------|
E|-------------------------------------------|

third part:
D|-17h18-15-15-12-12-7/9-15/14/12/10-9h10p9-5/7---------------------------|
A|------------------------------------------------------------------------|
F|-------------------------------------------------999-555-777-2(x8)------|(X2)
C|------------------------------------------------------------------------|
G|------------------------------------------------------------------------|
C|------------------------------------------------------------------------|


and if enough people rate and comment or even ask, then Ill even make a tutorial video to
show how its played timing wise and whatnot k people ROCK ON!!!!!




************************************
| t   tap
| /   slide up
| \   slide down
| h   hammer-on
| p   pull-off
| ~   vibrato
| +   harmonic
| x   Mute note
| b   Bend
| pb  Pre-bend
| br  Bend release
| pbr Pre-bend release
| brb Bend release bend

************************************





Comments


Popular Falling In Reverse tabs & chords
Pick Up The Phone 1 Bass Tabs
Im Not A Vampire 1 Chords
Keep Holding On Chords
Caught Like A Fly Tabs
Fashionably Late Tabs
Goodbye Graceful Tabs
Im Not A Vampire 1 Tabs
Self-destruct Personality Intro Tabs
The Drug In Me Is You 5 Tabs
The Westerner Ukulele


Song lyrics



↑ Back to top | Tablatures and chords are parodies/interpretations of the original songs. You may use it for private study, scholarship, research or language learning purposes only
© 2014 AZChords.com Contact us | Privacy policy | DMCA | Add/correct tabs | Request tabs | Top 50 tabs