» » »

Falling In Reverse, Sink Or Swim Bass tabs (ver.1)

Artists:  A B C D E F G H I J K L M N O P Q R S T U V W X Y Z # 

Sink Or Swim Bass tabs (ver.1)

Falling In Reverse Tabs
 Rating:
4/5 (4 votes)
Sink Or Swim lessons Tabs too difficult? Try these video lessons and learn fast
                F|------------------------------------------------------------------|
C|------------------------------------------------------------------|
G|-----------------1--1(x9)--1(x8)----------------------------------|
C|-0--0(x9)--0(x8)-----------------5--5(x9)--5(x8)-0--0(x9)--0(x8)--|

F|-----------------------------------------------------------|
C|-----------------------------------------------------------|
G|-----------------1--1(x9)--1(x8)---------------------------|
C|-0--0(x9)--0(x8)-----------------5--5(x9)--5(x8)-0--0(x9)--|

0:26
F|---------------------------------------|
C|-------------------------------------2-|
G|----------------------------------34---|
C|-0(x10)--0-00-00000--0(x10)--0-00------|

F|---------------------------------------|
C|-------------------------------------1-|
G|----------------------------------34---|
C|-5(x10)--5-55-55555--5(x10)--5-55------|

0:39
F|---------------------------------------|
C|-------------------------------------2-|
G|----------------------------------34---|
C|-0000000000~~00~00~0000000000~~00~-----|

F|-------------------------------------|
C|-------------------------------------|
G|-------------------------------------|
C|-5555555555~~55~55~5555555555~~5432--|

0:52
F|--------------------------------------------|
C|--------------------------------------------|
G|-------------------53--1(x16)---3(x8)-------|
C|-0(x16)---3(x12)--3-------------------2(x8)-|

F|-----------------------------------------------|
C|-----------------------------------------------|
G|-------------------53--1(x16)---44444464-0(x8)-|
C|-0(x16)---3(x12)--3----------------------------|

1:18
F|-------------|
C|-------------|
G|-------------|
C|-0-----0(x7)-|

1:24
F|------------------------------------------------------------------|
C|------------------------------------------------------------------|
G|-----------------1--1(x9)--1(x8)----------------------------------|
C|-0--0(x9)--0(x8)-----------------5--5(x9)--5(x8)-0--0(x9)--0(x8)--|

F|--------------------------------------------------------------|
C|--------------------------------------------------------------|
G|-----------------1--1(x9)--1(x8)------------------------------|
C|-0--0(x9)--0(x8)-----------------5--5(x9)--5(x8)-0--0000000~~-|

1:50
F|---------------------------------------|
C|-------------------------------------2-|
G|----------------------------------34---|
C|-0000000000~~00~00~0000000000~~00~-----|

F|-----------------------------------|
C|-----------------------------------|
G|-----------------------------------|
C|-5555555555~~55~55~5555555555~~55--|

2:03
F|--------------------------------------------|
C|--------------------------------------------|
G|-------------------53--1(x16)---3(x8)-------|
C|-0(x16)---3(x12)--3-------------------2(x8)-|

F|--------------------------------------------------|
C|--------------------------------------------------|
G|-------------------53--1(x16)---44444464-0(x8)----|
C|-0(x16)---3(x12)--3-----------------------------0-|

~~break~~

3:00
F|----------------------------------------|
C|----------------------------------------|
G|----------------------------------------|x2
C|-0(x10)--0-00-00000--0(x10)--0-00-00000-|

3:13
F|----------------------------------------|
C|----------------------------------------|
G|----------------------------------------|
C|-0(x10)--0-00-00000--3(x10)--3-33-33333-|

F|--------------------------------|
C|--------------------------------|
G|-1(x10)--1-11-11111--3(x10)--3--|
C|--------------------------------|

3:26
F|--------------------------------------------|
C|--------------------------------------------|
G|-------------------53--1(x16)---3(x8)-------|
C|-0(x16)---3(x12)--3-------------------2(x8)-|

F|-----------------------------------------------|
C|-----------------------------------------------|
G|-------------------53--1(x16)---44444464-0(x8)-|
C|-0(x16)---3(x12)--3----------------------------|

F|--------------------------------------------|
C|--------------------------------------------|
G|-------------------53--1(x16)---3(x8)-------|
C|-0(x16)---3(x12)--3-------------------2(x8)-|

F|--------------------------------------------------|
C|--------------------------------------------------|
G|-------------------53--1(x16)---44444464-0(x8)----|
C|-0(x16)---3(x12)--3-----------------------------0-|
            
Submit corrections

comments powered by Disqus
↑ Back to top | Falling In Reverse Bass for Sink Or Swim. Lyrics for acoustic guitar and electric guitar. Tablatures and chords are parodies/interpretations of the original songs. You may use it for private study, scholarship, research or language learning purposes only