>
 >
Raised By Wolves 2

Raised By Wolves 2 Bass Tabs

Falling In Reverse - Raised By Wolves 2 chords, tabs, tablatures, lyrics

Guitar lessons | Add/correct | Request | Top 50 tabs Artists:  A B C D E F G H I J K L M N O P Q R S T U V W X Y Z 0-9

Raised By Wolves 2 Bass Tabs – Falling In Reverse

CD, Sheet music, Poster

Do you like Raised By Wolves 2? Share with your friends now
Bass TabsBass Tabs v2TabsTabs v2
0:11
F|----------------------------------------------------------------------|
C|----------------------------------------------------------------------|
G|--------------------------------------3-3-----------------------------|
C|-12-\-2-2-------------------------------------------------------------|

F|-----------------------------------------------------------------|
C|-----------------------------------------------------------------|
G|-5-5-----------3-------3-2---------------------------------------|
C|---------------------------------2-2-2-2-2-2-2-2-2-2-2-2-2-2-0---|

0:23
F|-----------------------------------------------------------------|
C|-----------------------------------------------------------------|
G|-------------------------0-0-----3---3-3---3-----3-3-2---3-2-----|
C|-2-2-----4-4-----5-5---------------------------------------------|

F|-----------------------------------------------------------------|
C|-----------------------------------------------------------------|
G|-------------------------0-0-----2---2-2-2-2-2-2-6-6-6-6-6-6-6-3-|
C|-2-2-----4-4-----5-5---------------------------------------------|

0:35
F|-----------------------------------------------------------------|
C|-----------------------------------------------------------------|
G|---3-3-3-3-3-3-3-2-2-2-2-2-2-2---------------------------------3-|
C|-------------------------------2---2-2-2-2-2-2-2-4-4-4-4-5-5-5---|

F|-----------------------------------------------------------------|
C|-----------------------------------------------------------------|
G|---3-3-3-3-3-3-3-5-5-5-5-5-5-5---------------------------------3-|
C|-------------------------------2---2-2-2-2-2-2-2-4-4-4-4-5-5-5---|

0:46
F|-----------------------------------------------------------------|
C|-----------------------------------------------------------------|
G|---3-3-3-3-3-3-3-2-2-2-2-2-2-2-5---5-5-5-5-5-5-5-7-7-7-7-7-7-7-3-|
C|-----------------------------------------------------------------|

F|-----------------------------------------------------------------|
C|-----------------------------------------------------------------|
G|---3-3---3-----3-3---3---3-----6---6-6---6-----6-2---2-----------|
C|-----------------------------------------------------------------|

F|-----------------------------------------------------------------|
C|-----------------------------------------------------------------|
F|-------------------------0---------------------------------------|
C|-2---0-2-4---2-4-5---4-5-----5-4-------------------------------2-|

1:01
F|-----------------------------------------------------------------|
C|-----------------------------------------------------------------|
F|-------------------------------3---3-3-3-3-3-3-3-3-3-3-3-3-3-3-5-|
C|---2-2-2-2-2-2-2-2-2-2-2-2-2-2-----------------------------------|

F|-----------------------------------------------------------------|
C|-----------------------------------------------------------------|
F|---5-5-5-5-5-5-3---3-3-3-3-2-------------------------------5---7-|
C|-----------------------------5-2---2-2-2-2-2-2-2-2-2-2-2-2-------|

1:13
F|------------------------------------------------------------------|
C|-------------------------------5---555-555-555-555-555-10-9-5-7---|
G|---777-777-777-777-777-777-777------------------------------------|
C|------------------------------------------------------------------|

F|------------------------------------------------------------------|
C|---777-777-777-5---555-555-10-9-5---------------------------------|
G|----------------------------------7---777-777-777-777-777-777-5---|
C|------------------------------------------------------------------|

1:24
F|-----------------------------------------------------------------|
C|-----------------------------------------------------------------|
G|-------------------------0-0-----3---3-3---3-----3-3-2---3-2-----|
C|-2-2-----4-4-----5-5---------------------------------------------|

F|-----------------------------------------------------------------|
C|-----------------------------------------------------------------|
G|-------------------------0-0-----2---2-2-2-2-2-2-6-6-6-6-6-6-6-3-|
C|-2-2-----4-4-----5-5---------------------------------------------|

1:35
F|-----------------------------------------------------------------|
C|-----------------------------------------------------------------|
G|---3-3-3-3-3-3-3-2-2-2-2-2-2-2---------------------------------3-|
C|-------------------------------2---2-2-2-2-2-2-2-4-4-4-4-5-5-5---|

F|-----------------------------------------------------------------|
C|-----------------------------------------------------------------|
G|---3-3-3-3-3-3-3-5-5-5-5-5-5-5---------------------------------3-|
C|-------------------------------2---2-2-2-2-2-2-2-4-4-4-4-5-5-5---|

1:46
F|-----------------------------------------------------------------|
C|-----------------------------------------------------------------|
G|---3-3-3-3-3-3-3-2-2-2-2-2-2-2-5---5-5-5-5-5-5-5-7-7-7-7-7-7-7-3-|
C|-----------------------------------------------------------------|

F|-----------------------------------------------------------------|
C|-----------------------------------------------------------------|
G|---3-3---3-----3-3---3---3-----6---6-6---6-----6-2---------------|
C|-----------------------------------------------------------------|

1:58
F|-----------------------------------------------------------------|
C|-----------------------------------------------------------------|
G|---------------------------------0-0-----------------------------|
C|-2-2-------------------------------------------------------------|

F|-----------------------------------------------------------------|
C|-----------------------------------------------------------------|
G|-5-5-------------------------------------------------------------|
C|---------------------------------5-5---------------------111-111-|

2:09
F|-----------------------------------------------------------------|
C|-----------------------------------------------------------------|
G|---------------------------------00--00----000----00--00--000----|
C|-22--22----222---2222222-222-------------------------------------|

F|-----------------------------------------------------------------|
C|-----------------------------------------------------------------|
G|-55--55-55-5-5---555-5-5-555-------------------------------------|
C|---------------------------------55--55----555---111-111---------|

2:21
F|-----------------------------------------------------------------|
C|-----------------------------------------------------------------|
G|-----------------------------------------------------------------|
C|-2-------3p2-----222-2-3-2-1-----2-------3p2-----111-111-3-2-----|

F|-----------------------------------------------------------------|
C|-----------------------------------------------------------------|
G|---------------------------------------------------------------3-|
C|-222222223p2-----2222223-2-1-----222222223p2-----222-222-3-2-1---|

F|-----------------------------------------------------------------|
C|-----------------------------------------------------------------|
F|-------------------------2---------------------------------------|
C|---------------------------------2---------------4-------5-------|

Rest

2:39
F|-------------------------------------------------------------------|
C|-------------------------------------------------------------------|
G|-3---3-3-3-3-3-3-3-2-2-2-2-2-2-2---------------------------------3-|
C|---------------------------------2---2-2-2-2-2-2-2-4-4-4-4-5-5-5---|

F|-----------------------------------------------------------------|
C|-----------------------------------------------------------------|
G|---3-3-3-3-3-3-3-5-5-5-5-5-5-5---------------------------------3-|
C|-------------------------------2---2-2-2-2-2-2-2-4-4-4-4-5-5-5---|

2:50
F|-----------------------------------------------------------------|
C|-----------------------------------------------------------------|
G|---3-3-3-3-3-3-3-2-2-2-2-2-2-2-5---5-5-5-5-5-5-5-7-7-7-7-7-7-7-3-|
C|-----------------------------------------------------------------|

F|-----------------------------------------------------------------|
C|---------------------------------------------------------------2-|
G|---3-3---3-----3-3---3---3-----5---5-5---5-----5-5---5---5-------|
C|-----------------------------------------------------------------|

F|-----------------------------------------------------------------|
C|---2-2---2-----2-2---2---2-------4-4-4-4-4-4-4-4/9-9-9-9-9-9-9-9-|
G|-----------------------------------------------------------------|
C|-----------------------------------------------------------------|

3:07
F|-----------------------------------------------------------------|
C|-----------------------------------------------------------------|
G|-----------------------------------------------------------------|
C|-2-------3p2-----222-2-3-2-1-----2-------3p2-----111-111-3-2-----|

F|-----------------------------------------------------------------|
C|-----------------------------------------------------------------|
G|-----------------------------------------------------------------|
C|-222222223p2-----2222223-2-1-----222222223p2-----222-222-3-2-1---|





Comments


Popular Falling In Reverse tabs & chords
Alone Bass Tabs
Drifter Bass Tabs
Im Not A Vampire Bass Tabs
Pick Up The Phone Bass Tabs
Raised By Wolves Bass Tabs
Self Destruct Personality Bass Tabs
The Drug In Me Is You Bass Tabs
Drifter 2 Chords
Dont Mess With Ouija Boards Tabs
Sink Or Swim Tabs


Song lyrics



↑ Back to top | Tablatures and chords are parodies/interpretations of the original songs. You may use it for private study, scholarship, research or language learning purposes only
© 2014 AZChords.com Contact us | Privacy policy | DMCA | Add/correct tabs | Request tabs | Top 50 tabs