» » »

Falling In Reverse, Raised By Wolves Tabs (ver.2)

Artists:  A B C D E F G H I J K L M N O P Q R S T U V W X Y Z # 

Raised By Wolves Tabs (ver.2)

Falling In Reverse Tabs
 Rating:
4.3/5 (6 votes)
Raised By Wolves lessons Tabs too difficult? Try these video lessons and learn fast
                Falling In Reverse
Raised by Wolves

Drop C Tuning

Intro/Verse

|-----------------------------------------------------------------------------|
|-----------------------------------------------------------------------------|
|-----------------------------------------------------------------------------|
|-2-2-2-2-2-2-2-2-2-2-2-2-2-2-2-2-5-5-5-5-5-5-5-5-5-5-5-5-5-5-5-5-7-7-7-7-7-7-|
|-2-2-2-2-2-2-2-2-2-2-2-2-2-2-2-2-3-3-3-3-3-3-3-3-3-3-3-3-3-3-3-3-5-5-5-5-5-5-|
|-2-2-2-2-2-2-2-2-2-2-2-2-2-2-2-2---------------------------------------------|

p.m.______________________________________________________________________________________

|-----------------------------------------------------|
|-----------------------------------------------------|
|-----------------------------------------------------|
|-7-7-5-5-5-5-4-4-4-4-2-2-2-2-2-2-2-2-2-2-2-2-2-2-2-2-|
|-5-5-3-3-3-3-2-2-2-2-2-2-2-2-2-2-2-2-2-2-2-2-2-2-2-2-|
|---------------------2-2-2-2-2-2-2-2-2-2-2-2-2-2-2-2-|

p.m.________________________________________________________

Repeat intro, except dont palm mute each time you switch to a new chord, listen to the song

Pre Chorus

|--------------------------------------------------------------------|
|--------------------------------------------------------------------|
|--------------------------------------------------------------------|
|-2-2-4-4-5-5-7-7-55-5-5--5-54-5-55--2-2-4-4-5-5-7-7-8-8-8-8-8-8-8-8-|
|-2-2-4-4-5-5-7-7-33-3-3--3-32-3-33--2-2-4-4-5-5-7-7-6-6-6-6-6-6-6-6-|
|-2-2-4-4-5-5-7-7--------------------2-2-4-4-5-5-7-7-----------------|

|-------------------------|
|-------------------------|
|-------------------------|
|-11-11-11-11-11-11-11-11-|
|--9--9--9--9--9--9--9--9-|
|-------------------------|

Chorus

|------------------------------------------------------|
|------------------------------------------------------|
|------------------------------------------------------|
|-5--4--2--4--5--5--7--2--4--5--5--4--7--9---5---8--11-|
|-3--2--2--4--5--3--5--2--4--5--3--2--5--7---3---6---9-|
|-------2--4--5--------2--4--5-------------------------|

Listen to the song to figure out strumming patterns

Post Chorus

|-------------------------|
|-------------------------|
|-------------------------|
|-2-0-2-4-2-4-5-4-5-7-5-4-|
|-2-0-2-4-2-4-5-4-5-7-5-4-|
|-2-0-2-4-2-4-5-4-5-7-5-4-|



Verse

|----------------------------------------------------------|
|----------------------------------------------------------|
|----------------------------------------------------------|
|-2--5--7--5-----------2----0-222-555-777-555----------222-|
|-2--3--5--3--5-3------2----0-222-555-555-555-5-3------222-|
|-2---------------6-2--2----0-222-555-----555-----6-2--222-|


Listen to the song for picking and such, groups of 3 are gallop picking


Pre Chorus

Chorus

Pre Breakdown

|-------------------------|
|-------------------------|
|-------------------------|
|-22--77--00--55--111-111-|
|-22--77--00--55--111-111-|
|-22--77--00--55--111-111-|

Breakdown

|-----------------------|--------------------------------------------|
|-----------------------|--------------------------------------------|
|-----------------------|--------------------------------------------|
|-2--7--0--5--111-111---|-2-3-2--2-2-22-3-2-1--2-3-2--2-2-22-3-2-111-|
|-2--7--0--5--111-111---|-2-3-2--2-2-22-3-2-1--2-3-2--2-2-22-3-2-111-|
|-2--7--0--5--111-111---|-2h3-2--2-2-22-3-2-1--2h3-2--2-2-22-3-2-111-|

Listen to it for strumming patterns, mostly palm muted

Part before final chorus

|---------------------|
|---------------------|
|---------------------|
|-5-----2--2-----4--5-|
|-3-----4--2-----4--5-|
|----------2-----4--5-|

Play Chorus again

Then the 2nd part of the breakdown to end the song

If you have any comments or suggestions let me know, i got lazy on the strumming so the 
song is pretty straight forward if you listen to it.

Enjoy
            
Submit corrections

comments powered by Disqus
↑ Back to top | Falling In Reverse Tabs for Raised By Wolves. Lyrics for acoustic guitar and electric guitar. Tablatures and chords are parodies/interpretations of the original songs. You may use it for private study, scholarship, research or language learning purposes only