>
 >
Raised By Wolves

Raised By Wolves Bass Tabs

Falling In Reverse - Raised By Wolves chords, tabs, tablatures, lyrics

Guitar lessons | Add/correct | Request | Top 50 tabs Artists:  A B C D E F G H I J K L M N O P Q R S T U V W X Y Z 0-9

Raised By Wolves Bass Tabs – Falling In Reverse

CD, Sheet music, Poster

Do you like Raised By Wolves? Share with your friends now
Bass TabsBass Tabs v2TabsTabs v2
-------------------------------------------------------------------------------
-------------------------------------------------------------------------------






Tuning: Drop C.





Verse [0012]

F|----------------------------------------------------|
C|----------------------------------------------------|
G|--------------3-3---5-5---3~---3-2------------------|
C|--12\---2-2--------------------------2(x12)--2-2-2--|



Pre-chorus [00:24]

F|---------------------------------------------------|
C|---------------------------------------------------|
G|--------------------0-0---3-3-3--3---3-3-2-3--3-2--|
C|--2-2---4-4---5-5----------------------------------|

F|-------------------------------------------|
C|-------------------------------------------|
G|--------------------0-0---2(x16)---6(x16)--|
C|--2-2---4-4---5-5--------------------------|



Chorus [00:35]

F|---------------------------------------------------------------------------------|
C|----------------------------------------------------------2(x8)---4(x4)---5(x4)--|
G|--3(x8)---2(x8)---------------------------3(x8)---5(x8)--------------------------|
C|------------------2(x8)---4(x4)---5(x4)------------------------------------------|

F|----------------------------------------------------------|
C|--------------------------2(x8)------------1(x8)---4(x8)--|
G|--3(x8)---2(x8)---5(x8)-----------3(x16)------------------|
C|----------------------------------------------------------|

F|------------------------------|
C|------------------------------|
G|-----------------------0------|
C|--2-0-2--4-2-4--5-4-5----5-4--|



Verse [01:02]

F|----------------------------------------------------------------------|
C|----------------------------------------------------------------------|
G|--------------3~-3(x15)---5~-5(x6)---3~-3-3-3-3-2---------------------|  [x2]
C|--2~-2(x15)---------------------------------------5---2~--2(x11)---0--|



Pre-chorus [01:25]

F|---------------------------------------------------|
C|---------------------------------------------------|
G|--------------------0-0---3-3-3--3---3-3-2-3--3-2--|
C|--2-2---4-4---5-5----------------------------------|

F|-----------------------------------------|
C|-----------------------------------------|
G|--------------------0-0---2(x8)---6(x8)--|
C|--2-2---4-4---5-5------------------------|



Chorus [01:36]

F|---------------------------------------------------------------------------------|
C|----------------------------------------------------------2(x8)---4(x4)---5(x4)--|
G|--3(x8)---2(x8)---------------------------3(x8)---5(x8)--------------------------|
C|------------------2(x8)---4(x4)---5(x4)------------------------------------------|

F|----------------------------------------------------------|
C|--------------------------2(x8)------------1(x8)---4(x8)--|
G|--3(x8)---2(x8)---5(x8)-----------3(x16)------------------|
C|----------------------------------------------------------|



Bridge [02:00]

F|------------------------------------|
C|------------------------------------|
G|--------0-0---5-5-------------------|
C|--2-2---------------5-5---111--111--|

F|---------------------------------------------------|
C|---------------------------------------------------|
G|----------------------------00-00--000--00-00-000--|
C|--22-22--222--2222222-222--------------------------|

F|------------------------------------------------------|
C|------------------------------------------------------|
G|--55-55--5-5-5--555-5-55555-5-------------------------|
C|--------------------------------55-55--555---111-111--|

F|--------------------------------------------------|
C|--------------------------------------------------|
G|--------------------------------------------------|
C|--2~--3-2-222-2-3-2-1----2~--3-2--111-111--3-2-1--|

F|----------------------------------------------------------------------------|
C|----------------------------------------------------------------------------|
G|---------------------------------------------------------------3~-2---------|
C|--22222222--3-2-222222-3-2-1----22222222--3-2--222222--3-2-1--------2~-4-5--|



Chorus [02:39]

F|---------------------------------------------------------------------------------|
C|----------------------------------------------------------2(x8)---4(x4)---5(x4)--|
G|--3(x8)---2(x8)---------------------------3(x8)---5(x8)--------------------------|
C|------------------2(x8)---4(x4)---5(x4)------------------------------------------|

F|------------------------------------------------------------------|
C|--------------------------2(x8)-------------------2(x16)--4(x16)--|
G|--3(x8)---2(x8)---5(x8)-----------3(x16)--5(x16)------------------|
C|------------------------------------------------------------------|

F|------------------------------------------------|
C|------------------------------------------------|
G|------------------------------------------------|
C|--2~--3-2-222-2-3-2-1----2~--3-2--111-111--3-2--|

F|--------------------------------------------------------------|
C|--------------------------------------------------------------|
G|--------------------------------------------------------------|
C|--22222222--3-2-222222-3-2-1----22222222--3-2--222222--3-2-1--|





| /  slide up
| \  slide down
| h  hammer-on
| p  pull-off
| ~  vibrato
| +  harmonic
| x  Mute note
===============================================================================





Comments


Popular Falling In Reverse tabs & chords
Bad Girls Club Bass Tabs
Bad Girls Club 2 Bass Tabs
Game Over Bass Tabs
Im Not A Vampire Bass Tabs
Its Over When Its Over Bass Tabs
Pick Up The Phone 3 Bass Tabs
Drifter Chords
Goddamn 1 Tabs
Pick Up The Phone 2 Tabs
The Departure Tabs


Song lyrics



↑ Back to top | Tablatures and chords are parodies/interpretations of the original songs. You may use it for private study, scholarship, research or language learning purposes only
© 2014 AZChords.com Contact us | Privacy policy | DMCA | Add/correct tabs | Request tabs | Top 50 tabs