» » »

Pick Up The Phone Bass tabs (ver.3)

Artists:  A B C D E F G H I J K L M N O P Q R S T U V W X Y Z # 

Pick Up The Phone Bass tabs (ver.3)

Falling In Reverse
Rating:
0/5 (0 votes)
Tabs too difficult? Try these video lessons and learn fast.
                0:02
F|-----------------------------------------------------------------|
C|-2-----2-------------------------2-----2-------------------------|
G|---------------2---2---2-3---------------------2---2---2-3-3-2---|
C|---------2-------------------------------2---------------------5-|

F|-----------------------------------------------------------------|
C|-2-----2---------------------------------------------------------|
G|---------------2---2---2-3---------------------------------------|
C|---------2-----------------------14-\-\-\-\-\-\-\----------------|

0:17
F|-----------------------------------------------------------------|
C|-2-----2-------------------------2-----2-------------------------|
G|---------------2---2---2-3-3-3-3---------------2---2---2-3-3-2---|
C|---------2-------------------------------2---------------------5-|

F|-----------------------------------------------------------------|
C|-2-----2---------------------------------------------------------|
G|---------------2---2---2-3-3-3-3-7-\-\-\-------------------------|
C|---------2-------------------------------------------------------|

0:31
F|-----------------------------------------------------------------|
C|-2-----2-------------------------2-----2-------------------------|
G|---------------2---2---2-3---------------------2---2---2-3-3-2---|
C|---------2-------------------------------2---------------------5-|

F|-----------------------------------------------------------------|
C|-2-----2---------------------------------------------------------|
G|---------------2---2---2-3---------------------------------------|
C|---------2-----------------------14-\-\-\-\-\-\-\----------------|

0:45
F|-----------------------------------------------------------------|
C|-2-----2-------------------------2-----2-------------------------|
G|---------------2---2---2-3-3-3-3---------------2---2---2-3-3-2---|
C|---------2-------------------------------2---------------------5-|

F|-----------------------------------------------------------------|
C|-2-----2---------------------------------------------------------|
G|---------------2---2---2-3-3-3-3-7-\-\-\-------------------------|
C|---------2-------------------------------------------------------|

0:59
F|-------------------------------------------------------------------------|
C|-------------------------------------------------------------------------|
G|-------------------------------------------------------------------------|
C|-2-2-2-2-2-2-2-2-2-2-2-2-4-4-4-4-4-4-4-4-4-4-4-4-5-5-5-5-5-5-5-5-5-5-5-5-|

F|-------------------------------------------------------------------------|
C|-------------------------------------------------------------------------|
G|-0-0-0-0-0-0-0-0-0-0-0-0-------------------------------------------------|
C|-------------------------2-2-2-2-2-2-2-2-2-2-2-2-4-4-4-4-4-4-4-4-4-4-4-4-|

F|-------------------------------------------------|
C|-------------------------------------------------|
G|-------------------------0-----------------------|
C|-5-5-5-5-5-5-5-5-5-5-5-5-------------------7-\-\-|

1:12
F|-------------------------------------------------------------------------------------------------|
C|-------------------------------------------------------------------------------------------------|
G|-3---3-3---3-3---3-3---3-3---3-3---3-3---3-3---------------------------------------------------3-|
C|-----------------------------------------------2-----2-2---2-2---2-2---5-----5-5---5-5---5-5-----|

F|-------------------------------------------------------------------------------------------------|
C|-------------------------------------------------------------------------------------------------|
G|-----3-3---3-3---3-3---3-3---3-3---3-3---3-3---------------------------2-----2-2---2-2---2-2---3-|
C|-----------------------------------------------2-----2-2---2-2---2-2-----------------------------|

F|-------------------------------------------------------------------------------------------------|
C|-------------------------------------------------------------------------------------------------|
G|-----3-3---3-3---3-3---3-3---3-3---3-3---3-3---------------------------------------------------3-|
C|-----------------------------------------------2-----2-2---2-2---2-2---5-----5-5---5-5---5-5-----|

F|-------------------------------------------------------------------------------------------------|
C|-------------------------------------------------------------------------------------------------|
G|-----3-3---3-3---3-3---3-3---3-3---3-3---3-3---5-----5-5---5-5---5-5---6-6---6-6---6-6---6-6---6-|
C|-------------------------------------------------------------------------------------------------|

1:38
F|-----------------------------------------------------------------|
C|-2-----2-------------------------2-----2-------------------------|
G|---------------2---2---2-3-3-3-3---------------2---2---2-3-3-2---|
C|---------2-------------------------------2---------------------5-|

F|-----------------------------------------------------------------|
C|-2-----2---------------------------------------------------------|
G|---------------2---2---2-3-3-3-3-7-\-\-\-------------------------|
C|---------2-------------------------------------------------------|

1:51
F|-----------------------------------------------------------------|
C|-2-----2-------------------------2-----2-------------------------|
G|---------------2---2---2-3---------------------2---2---2-3-3-2---|
C|---------2-------------------------------2---------------------5-|

F|-----------------------------------------------------------------|
C|-2-----2-------------------------2-----2-------------------------|
G|---------------2---2---2-3---------------------2---2---2-3-3-2---|
C|---------2-------------------------------2---------------------5-|

F|-----------------------------------------------------------------|
C|-2-----2---------------------------------------------------------|
G|---------------2---2---2-3---------------------------------------|
C|---------2-----------------------14-\-\-\-\-\-\-\----------------|

2:12
F|-----------------------------------------------------------------|
C|-2-----2-------------------------2-----2-------------------------|
G|---------------2---2---2-3-3-3-3---------------2---2---2-3-3-2---|
C|---------2-------------------------------2---------------------5-|

F|-----------------------------------------------------------------|
C|-2-----2---------------------------------------------------------|
G|---------------2---2---2-3-3-3-3-7-\-\-\-------------------------|
C|---------2-------------------------------------------------------|

2:26
F|-------------------------------------------------------------------------|
C|-------------------------------------------------------------------------|
G|-------------------------------------------------------------------------|
C|-2-2-2-2-2-2-2-2-2-2-2-2-4-4-4-4-4-4-4-4-4-4-4-4-5-5-5-5-5-5-5-5-5-5-5-5-|

F|-------------------------------------------------------------------------|
C|-------------------------------------------------------------------------|
G|-0-0-0-0-0-0-0-0-0-0-0-0-------------------------------------------------|
C|-------------------------2-2-2-2-2-2-2-2-2-2-2-2-4-4-4-4-4-4-4-4-4-4-4-4-|

F|-------------------------------------------------|
C|-------------------------------------------------|
G|-------------------------0-----------------------|
C|-5-5-5-5-5-5-5-5-5-5-5-5-------------------7-\-\-|

2:40
F|-------------------------------------------------------------------------------------------------|
C|-------------------------------------------------------------------------------------------------|
G|-3---3-3---3-3---3-3---3-3---3-3---3-3---3-3---------------------------------------------------3-|
C|-----------------------------------------------2-----2-2---2-2---2-2---5-----5-5---5-5---5-5-----|

F|-------------------------------------------------------------------------------------------------|
C|-------------------------------------------------------------------------------------------------|
G|-----3-3---3-3---3-3---3-3---3-3---3-3---3-3---------------------------2-----2-2---2-2---2-2---3-|
C|-----------------------------------------------2-----2-2---2-2---2-2-----------------------------|

F|-------------------------------------------------------------------------------------------------|
C|-------------------------------------------------------------------------------------------------|
G|-----3-3---3-3---3-3---3-3---3-3---3-3---3-3---------------------------------------------------3-|
C|-----------------------------------------------2-----2-2---2-2---2-2---5-----5-5---5-5---5-5-----|

F|-------------------------------------------------------------------------------------------------|
C|-------------------------------------------------------------------------------------------------|
G|-----3-3---3-3---3-3---3-3---3-3---3-3---3-3---5-----5-5---5-5---5-5---6-6---6-6---6-6---6-6---6-|
C|-------------------------------------------------------------------------------------------------|

3:06
F|-------------------------------------------------------------------------------------------------|
C|-------------------------------------------------------------------------------------------------|
G|-0-----------------0-----------------------------3-----------------3-----------------------------|
C|-------------------------5-----------------5-----------------------------2-----------2-----2-----|

F|-------------------------------------------------------------------------------------------------|
C|-------------------------------------------------------------------------------------------------|
G|-0-----------------0-----------------------------3-----------------3-----------------------------|
C|-------------------------5-----------------5-----------------------------2-----------2-----------|
3:20
F|-------------------------------------------------------------------------------------------------|
C|-------------------------------------------------------------------------------------------------|
G|-0---0-0-0---0---0-0-0---------------------------3---3-3-3---3---3-3-3---------------------------|
C|-------------------------5---5-5-5---5---5-5-5---------------------------2-2-2-2-2-2-2-2-2-2-2-2-|

F|-------------------------------------------------------------------------------------------------|
C|-------------------------------------------------------------------------------------------------|
G|-0---0-0-0---0---0-0-0---------------------------3---3-3-3---3---3-3-3---------------2-----------|
C|-------------------------5---5-5-5---5---5-5-5---------------------------6-----------------------|

F|---------|
C|---------|
G|---------|
C|-2-\-\-\-|

3:37
F|-----------------------------------------------------------------|
C|-2-----2-------------------------2-----2-------------------------|
G|---------------2---2---2-3---------------------2---2---2-3-3-2---|
C|---------2-------------------------------2---------------------5-|

F|-----------------------------------------------------------------|
C|-2-----2---------------------------------------------------------|
G|---------------2---2---2-3---------------------------------------|
C|---------2-----------------------14-\-\-\-\-\-\-\----------------|

3:50
F|-------------------------------------------------------------------------------------------------|
C|-------------------------------------------------------------------------------------------------|
G|-3---3-3---3-3---3-3---3-3---3-3---3-3---3-3---------------------------------------------------3-|
C|-----------------------------------------------2-----2-2---2-2---2-2---5-----5-5---5-5---5-5-----|
F|-------------------------------------------------------------------------------------------------|
C|-------------------------------------------------------------------------------------------------|
G|-----3-3---3-3---3-3---3-3---3-3---3-3---3-3---------------------------2-----2-2---2-2---2-2---3-|
C|-----------------------------------------------2-----2-2---2-2---2-2-----------------------------|

F|-------------------------------------------------------------------------------------------------|
C|-------------------------------------------------------------------------------------------------|
G|-----3-3---3-3---3-3---3-3---3-3---3-3---3-3---------------------------------------------------3-|
C|-----------------------------------------------2-----2-2---2-2---2-2---5-----5-5---5-5---5-5-----|

F|-------------------------------------------------------------------------------------------------|
C|-------------------------------------------------------------------------------------------------|
G|-----3-3---3-3---3-3---3-3---3-3---3-3---3-3---5-----5-5---5-5---5-5---6-6---6-6---6-6---6-6---6-|
C|-------------------------------------------------------------------------------------------------|

4:16
F|-----------------------------------------------------------------|
C|-2-----2-------------------------2-----2-------------------------|
G|---------------2---2---2-3-3-3-3---------------2---2---2-3-3-2---|
C|---------2-------------------------------2---------------------5-|

F|-----------------------------------------------------------------|
C|-2-----2---------------------------------------------------------|
G|---------------2---2---2-3-3-3-3-7-\-\-\-------------------------|
C|---------2-------------------------------------------------------|
            
Tabs too difficult? Try these video lessons and learn fast.


comments powered by Disqus
↑ Back to top | Tablatures and chords are parodies/interpretations of the original songs. You may use it for private study, scholarship, research or language learning purposes only