» » »

Pick Up The Phone Tabs (ver.3)

Artists:  A B C D E F G H I J K L M N O P Q R S T U V W X Y Z # 

Pick Up The Phone Tabs (ver.3)

Falling In Reverse
Rating:
4/5 (1 vote)

Hard to play? Try these video lessons and learn fast.
                -------------------------------------------------------------------------------
                       Pick Up The Phone -Falling In Reverse
-------------------------------------------------------------------------------

Tuning: Drop C

You can play it in Drop D as well, just get 2 frets down. :)

Comment & Rate.

Intro
D|-----------------------------|
F|-----------------------------|
A|--9--------------------------|
C|--9---9-2---4--4--4-5--4-4---| (x3)
G|--7---7-2---2--2--2-3--2-2---|
C|--------2--------------------|

D|----------------------|
F|----------------------|
A|--9\------------------|
C|--9\------------------|
G|--7\--xx--xx--xx--xx--|
C|------xx--xx--xx--xx--|


Verse
D|-----------------------------|
F|-----------------------------|
A|--9--------------------------|
C|--9---9-2---4--4--4-5--4-4---| (x3)
G|--7---7-2---2--2--2-3--2-2---|
C|--------2--------------------|

D|-------------------------|
F|-------------------------|
A|--9\---------------------|
C|--9\---------------------|
G|--7\--xx--xx--xx--xx--xx-|
C|------xx--xx--xx--xx--xx-|

D|--------------|
F|--------------|
A|--------------|
C|--------------|x2
G|-2--4--5--7---|
C|-2--4--5--7---|
PM........... 


Chorus (chords)
D|---------------------------------------------|
F|---------------------------------------------|
A|-5----------5-------4--5----------5----7--8--|
C|-5----2--5--5----2--4--5----2--5--5----7--8--|
G|-3----2--5--3----2--2--3----2--5--3----5--6--|
C|------2--5-------2----------2--5-------------|


Post-Chorus
D|-----------------------------|
F|-----------------------------|
A|--9--------------------------|
C|--9---9-2---4--4--4-5--4-4---| (x3)
G|--7---7-2---2--2--2-3--2-2---|
C|--------2--------------------|

D|-------------------------|
F|-------------------------|
A|--9\---------------------|
C|--9\---------------------|
G|--7\--xx--xx--xx--xx--xx-|
C|------xx--xx--xx--xx--xx-|


Verse
D|--7---|
F|--8---|
A|--9---|
C|--9---|x4
G|------|
C|------|

D|-----------------------------|
F|-----------------------------|
A|--9--------------------------|
C|--9---9-2---4--4--4-5--4-4---| (x3)
G|--7---7-2---2--2--2-3--2-2---|
C|--------2--------------------|

D|-------------------------|
F|-------------------------|
A|--9\---------------------|
C|--9\---------------------|
G|--7\--xx--xx--xx--xx--xx-|
C|------xx--xx--xx--xx--xx-|

D|--------------|
F|--------------|
A|--------------|
C|--------------|x2
G|-2--4--5--7---|
C|-2--4--5--7---|
PM........... 


Chorus (chords)
D|---------------------------------------------|
F|---------------------------------------------|
A|-5----------5-------4--5----------5----7--8--|
C|-5----2--5--5----2--4--5----2--5--5----7--8--|
G|-3----2--5--3----2--2--3----2--5--3----5--6--|
C|------2--5-------2----------2--5-------------|


Breakdown (pre-solo)
D|---------------------|
F|---------------------|
A|-14---12---17---16---|x2
C|--x----x----x----x---|
G|-12---10---15---14---|
C|---------------------|


DON'T KNOW THE SOLO :p


Back to the verse (Kinda pre-chorus)
D|--7---|
F|--8---|
A|--9---|
C|--9---|x4
G|------|
C|------|


Chorus (chords)
D|---------------------------------------------|
F|---------------------------------------------|
A|-5----------5-------4--5----------5----7--8--|
C|-5----2--5--5----2--4--5----2--5--5----7--8--|
G|-3----2--5--3----2--2--3----2--5--3----5--6--|
C|------2--5-------2----------2--5-------------|


Outro
D|-----------------------------|
F|-----------------------------|
A|--9--------------------------|
C|--9---9-2---4--4--4-5--4-4---| (x3)
G|--7---7-2---2--2--2-3--2-2---|
C|--------2--------------------|

D|-------------------------|
F|-------------------------|
A|--9\---------------------|
C|--9\---------------------|
G|--7\--xx--xx--xx--xx--xx-|
C|------xx--xx--xx--xx--xx-|

END.

Hope it helped. :D
            
Hard to play? Try these video lessons and learn fast. | Correct




comments powered by Disqus
↑ Back to top | Tablatures and chords are parodies/interpretations of the original songs. You may use it for private study, scholarship, research or language learning purposes only