» » »

Pick Up The Phone Tabs (ver.2)

Artists:  A B C D E F G H I J K L M N O P Q R S T U V W X Y Z # 

Pick Up The Phone Tabs (ver.2)

Falling In Reverse
Rating:
4/5 (1 vote)

Hard to play? Try these video lessons and learn fast.
                
*ALL RIGHTS GO TO FALLING IN REVERSE & EPITAPH RECORDS*

Hi, this is my partake of this tab. Some parts
are off such as the chorus, it was the best I could hear,
and sorry guys no solo. Not sure if it was in Drop C but I think it sounds better in 
Drop D. Feel free to move up the fret.

[Intro]
Bass & Drums Start Off...

0:17-0:28
E|--------------------------|
B|--------------------------|
G|--------------------------|
D|--7-7---------------------|x3
A|--5-57-77-7h8-7h8---------|
D|-----7-77-7h8-7h8---------|

0:45-0:56
E|--------------------------|
B|--------------------------|
G|--------------------------|
D|--7-7---------------------|x3
A|--5-57-77-7h8-7h8---------|
D|-----7-77-7h8-7h8---------|

0:59-1:11
E|--------------------------|
B|--------------------------|
G|--------------------------|x2
D|-7---9---10--12-----------|
A|-5---7---8---10-----------|
D|-PM--PM--PM--PM-----------|

[Chorus]
1:12-1:38
E|--------------------------|
B|--------------------------|
G|--7/5/7-------------------|
D|--x/x/x-7--8--5-----------|
A|--5/3/5-7--8--5-----------|
D|--------7--8--5-----------|

1:39-1:49
E|--------------------------|
B|--------------------------|
G|--------------------------|
D|--7-7---------------------|x3
A|--5-57-77-7h8-7h8---------|
D|-----7-77-7h8-7h8---------|

(Echo effect prt.)
1:52-2:10
E|--------------------------|
B|--------------------------|
G|-------7~-----------------|
D|-------7~-----------------| x4
A|-------5~-----------------|
D|--------------------------|

2:13-2:23
E|--------------------------|
B|--------------------------|
G|--------------------------|
D|--7-7---------------------|x3
A|--5-57-77-7h8-7h8---------|
D|-----7-77-7h8-7h8---------|

2:27-2:39
E|--------------------------|
B|--------------------------|
G|--------------------------|x2
D|-7---9---10--12-----------|
A|-5---7---8---10-----------|
D|-PM--PM--PM--PM-----------|

2:40-3:05
E|--------------------------|
B|--------------------------|
G|--7/5/7-------------------|
D|--x/x/x-7--8--5-----------|
A|--5/3/5-7--8--5-----------|
D|--------7--8--5-----------|

[Breakdown]
E|--------------------------|
B|--------------------------|
G|--15--14--12--10----------|
D|--x---x---x---x-----------|
A|--13--12--10--8-----------|
D|--------------------------|

(SOLO....)

3:37-3:48
E|--------------------------|
B|--------------------------|
G|------7~------------------|
D|------7~------------------|
A|------5~------------------|
D|--------------------------|

[Chorus]
3:51-4:16
E|--------------------------|
B|--------------------------|
G|--7/5/7-------------------|
D|--x/x/x-7--8--5-----------|
A|--5/3/5-7--8--5-----------|
D|--------7--8--5-----------|

4:17-4:27
E|--------------------------|
B|--------------------------|
G|--------------------------|
D|--7-7---------------------|x3
A|--5-57-77-7h8-7h8---------|
D|-----7-77-7h8-7h8---------|

"We're sorry, the number you have dialed is not in service. f**k You."
            
Hard to play? Try these video lessons and learn fast. | Correct




comments powered by Disqus
↑ Back to top | Tablatures and chords are parodies/interpretations of the original songs. You may use it for private study, scholarship, research or language learning purposes only