» » »

Pick Up The Phone Bass tabs (ver.2)

Artists:  A B C D E F G H I J K L M N O P Q R S T U V W X Y Z # 

Pick Up The Phone Bass tabs (ver.2)

Falling In Reverse
Rating:
5/5 (4 votes)

Hard to play? Try these video lessons and learn fast.
                -------------------------------------------------------------------------------
			     PICK UP THE PHONE - Falling In Reverse.
-------------------------------------------------------------------------------






Tuning: Drop D.





Intro [00:03]

G|----------------------------------------------------------------|
D|----------------------------------------------------------------|
A|--5-5---0-0-1-1----5-5---0-0-11-1-0------5-5--------------------|
D|------0----------------0------------3--------0-7-7-7-8----x12\--|

G|-------------------------------------------------------------|
D|-------------------------------------------------------------|
A|--5-----0-0-11-11---5-----0-0-11-11---5----------------------|
D|----0-0---------------0-0---------------0-0-7-7-88-88-8-12\--|



Verse [00:31]

G|----------------------------------------------------------------|
D|----------------------------------------------------------------|
A|--5-5---0-0-1-1----5-5---0-0-11-1-0------5-5--------------------|
D|------0----------------0------------3--------0-7-7-7-8----x12\--|

G|-------------------------------------------------------------|
D|-------------------------------------------------------------|
A|--5-----0-0-11-11---5-----0-0-11-11---5----------------------|
D|----0-0---------------0-0---------------0-0-7-7-88-88-8-12\--|

G|-------------------------------------------------------------|
D|-------------------------------------------------------------|
A|-------------------------------------------------------------|
D|--0(x12)--2(x12)--3(x12)--5(x12)--0(x12)--2(x12)--3(x12)--5--|



Chorus [01:12]

G|----------------------------------------------------|
D|----------------------------------------------------|
A|----------------------------------------------------|
D|--5-8-88-88-88-88-88-88-88--0-00-00-00--3-33-33-33--|

G|--------------------------------------------------|
D|--------------------------------------------------|
A|--1-11-11-11-11-11-11-11--5-55-55-55--7-77-77-77--|
D|--------------------------------------------------|

G|--------------------------------------------------|
D|--------------------------------------------------|
A|--------------------------------------------------|
D|--8-88-88-88-88-88-88-88--0-00-00-00--3-33-33-33--|

G|----------------------------------------------------|
D|----------------------------------------------------|
A|--1-11-11-11-11-11-11-11--3-33-33-33-44-44-44-44-4--|
D|----------------------------------------------------|

G|-------------------------------------------------------------|
D|-------------------------------------------------------------|
A|--5-----0-0-11-11---5-----0-0-11-11---5----------------------|
D|----0-0---------------0-0---------------0-0-7-7-88-88-8-12\--|



Verse [01:52]

G|---------------------------------------|
D|---------------------------------------|
A|--5-5---0-0-1-1----5-5---0-0-11-1-0----|
D|------0----------------0------------3--|

G|------------------------------------------------------------------------------|
D|------------------------------------------------------------------------------|
A|--5-5---0-0-1-1----5-5---0-0-11-1-0------5-5----------------------------------|
D|------0----------------0------------3--------0-7-7-7-8----x12\--xxxxxxxxxxxx--|

G|-------------------------------------------------------------|
D|-------------------------------------------------------------|
A|--5-----0-0-11-11---5-----0-0-11-11---5----------------------|
D|----0-0---------------0-0---------------0-0-7-7-88-88-8-12\--|

G|-------------------------------------------------------------|
D|-------------------------------------------------------------|
A|-------------------------------------------------------------|
D|--0(x12)--2(x12)--3(x12)--5(x12)--0(x12)--2(x12)--3(x12)--5--|



Chorus [02:40]

G|----------------------------------------------------|
D|----------------------------------------------------|
A|----------------------------------------------------|
D|--5-8-88-88-88-88-88-88-88--0-00-00-00--3-33-33-33--|

G|--------------------------------------------------|
D|--------------------------------------------------|
A|--1-11-11-11-11-11-11-11--5-55-55-55--7-77-77-77--|
D|--------------------------------------------------|

G|--------------------------------------------------|
D|--------------------------------------------------|
A|--------------------------------------------------|
D|--8-88-88-88-88-88-88-88--0-00-00-00--3-33-33-33--|

G|----------------------------------------------------|
D|----------------------------------------------------|
A|--1-11-11-11-11-11-11-11--3-33-33-33-44-44-44-44-4--|
D|----------------------------------------------------|



Bridge [03:07]

G|--------------------------------------------------------------------------|
D|--------------------------------------------------------------------------|
A|--------------------------------------------------------------------------|
D|--5(x12)--3(x12)--8(x12)--0(x6)--4(x6)--5(x12)--3(x12)--8(x12)--0(x6)--4--|

G|-----------------------------------------------------------------------------|
D|-----------------------------------------------------------------------------|
A|-----------------------------------------------------------------------------|
D|--5(x12)--3(x12)--8(x12)--0(x6)--4(x6)--5(x12)--3(x12)--8(x12)--4~--7~--12\--|

G|------------------------------------------------------------------------------|
D|------------------------------------------------------------------------------|
A|--5-5---0-0-1-1----5-5---0-0-11-1-0------5-5----------------------------------|
D|------0----------------0------------3--------0-7-7-7-8----x12\--xxxxxxxxxxxx--|



Chorus [03:51]

G|--------------------------------------------------|
D|--------------------------------------------------|
A|--------------------------------------------------|
D|--8-88-88-88-88-88-88-88--0-00-00-00--3-33-33-33--|

G|--------------------------------------------------|
D|--------------------------------------------------|
A|--1-11-11-11-11-11-11-11--5-55-55-55--7-77-77-77--|
D|--------------------------------------------------|

G|--------------------------------------------------|
D|--------------------------------------------------|
A|--------------------------------------------------|
D|--8-88-88-88-88-88-88-88--0-00-00-00--3-33-33-33--|

G|----------------------------------------------------|
D|----------------------------------------------------|
A|--1-11-11-11-11-11-11-11--3-33-33-33-44-44-44-44-4--|
D|----------------------------------------------------|

G|-------------------------------------------------------------|
D|-------------------------------------------------------------|
A|--5-----0-0-11-11---5-----0-0-11-11---5----------------------|
D|----0-0---------------0-0---------------0-0-7-7-88-88-8-12\--|





| /  slide up
| \  slide down
| h  hammer-on
| p  pull-off
| ~  vibrato
| +  harmonic
| x  Mute note
===============================================================================
            
Hard to play? Try these video lessons and learn fast. | Correct




comments powered by Disqus
↑ Back to top | Tablatures and chords are parodies/interpretations of the original songs. You may use it for private study, scholarship, research or language learning purposes only