» » »

Falling In Reverse, Pick Up The Phone Bass tabs (ver.1)

Artists:  A B C D E F G H I J K L M N O P Q R S T U V W X Y Z # 

Pick Up The Phone Bass tabs (ver.1)

Falling In Reverse Tabs
 Rating:
4.6/5 (10 votes)
Pick Up The Phone lessons Tabs too difficult? Try these video lessons and learn fast
1
                
Hi guys, i'm not totally convinced this tab is right, I'm really tired, but I gave 
it my best shot, hope you like it, and well, happy playing! 

Update 31/7/2011:
I've cleaned it up a bit, got rid of a few mistakes, happy playing! 

Intro:

g|---------------------------------------------------|
d|---------------------------------------------------|
a|--5-5-0-0-0-1--5-5-0-0-0-1-1-1-1--5-5-0-0-0-1------|
D|-----0------------0------------------0--------12\--|

g|--------------------------------------------------xx-x-xx-x-xx-x-xx--|
d|--------------------------------------------------xx-x-xx-x-xx-x-xx--|
a|--5-5-0-0-0-1--5-5-0-0-0-1-1-1-1--5-5-0-0-0-1--5--xx-x-xx-x-xx-x-xx--|
D|-----0------------0------------------0------------xx-x-xx-x-xx-x-xx--|

Verse:

g|---------------------------------------------------|
d|---------------------------------------------------|
a|--5-5-0-0-0-1--5-5-0-0-0-1-1-1-1--5-5-0-0-0-1------|
D|-----0------------0------------------0--------12\--|

g|--------------------------------------------------xx-x-xx-x-xx-x-xx--|
d|--------------------------------------------------xx-x-xx-x-xx-x-xx--|
a|--5-5-0-0-0-1--5-5-0-0-0-1-1-1-1--5-5-0-0-0-1--5--xx-x-xx-x-xx-x-xx--|
D|-----0------------0------------------0------------xx-x-xx-x-xx-x-xx--|

Pre chorus: 

g|----------------------------------------------------------------|
d|----------------------------------------------------------------|
a|--5(x12)--7(x12)--8(x12)--10(x12)--5(x12)--7(x12)--8(x12)--10~--|
D|----------------------------------------------------------------|

Chorus: 
I don't know how to explain this properly, but it sounds like it's played with a 
sort of picking pattern, something like 1,2,1,2,1,2,1,2,1,2,1,2,1,2 I don't know 
if that's any help, but hey, I'm sure you'll work it out ;)

g|---------------------------------------------------------------------------------|
d|---------------------------------------------------------------------------------|
a|--1-1--1-1--1-1--1-1--1-1--1-1--1-1--1-1-----------------------------------------|
D|-----------------------------------------0-0--0-0--0-0--0-0--2-2--2-2--2-2--2-2--|

Play four times, except on the fourth, play:

g|----------------------------------------------------------------------------------|
d|----------------------------------------------------------------------------------|
a|--1-1--1-1--1-1--1-1--1-1--1-1--1-1--1-1--3-3--3-3--3-3--3-3--4-4--4-4--4-4--4-4--|
D|----------------------------------------------------------------------------------|

Verse:

g|--------------------------------------------------xx-x-xx-x-xx-x-xx--|
d|--------------------------------------------------xx-x-xx-x-xx-x-xx--|
a|--5-5-0-0-0-1--5-5-0-0-0-1-1-1-1--5-5-0-0-0-1--5--xx-x-xx-x-xx-x-xx--|
D|-----0------------0------------------0------------xx-x-xx-x-xx-x-xx--|

g|------------------------------------------------------------------------------------|
d|------------------------------------------------------------------------------------|
a|--5-5-0-0-0-1--5-5-0-0-0-1-1-1-1--5-5-0-0-0-1--5-5-0-0-0-1-1-1-1--5-5--0-0-0-1------|
D|-----0------------0------------------0------------0------------------0---------12\--|

g|--------------------------------------------------xx-x-xx-x-xx-x-xx--|
d|--------------------------------------------------xx-x-xx-x-xx-x-xx--|
a|--5-5-0-0-0-1--5-5-0-0-0-1-1-1-1--5-5-0-0-0-1--5--xx-x-xx-x-xx-x-xx--|
D|-----0------------0------------------0------------xx-x-xx-x-xx-x-xx--|

Pre Chorus:

g|----------------------------------------------------------------|
d|----------------------------------------------------------------|
a|--5(x12)--7(x12)--8(x12)--10(x12)--5(x12)--7(x12)--8(x12)--10~--|
D|----------------------------------------------------------------|

Chorus:

g|---------------------------------------------------------------------------------|
d|---------------------------------------------------------------------------------|
a|--1-1--1-1--1-1--1-1--1-1--1-1--1-1--1-1-----------------------------------------|
D|-----------------------------------------0-0--0-0--0-0--0-0--2-2--2-2--2-2--2-2--|

Play four times, except on the fourth, play:

g|----------------------------------------------------------------------------------|
d|----------------------------------------------------------------------------------|
a|--1-1--1-1--1-1--1-1--1-1--1-1--1-1--1-1--3-3--3-3--3-3--3-3--4-4--4-4--4-4--4-4--|
D|----------------------------------------------------------------------------------|

Breakdown:
I wasn't sure at first, but I think it goes something like this:

g|-----------------------------------------------------------------------|
d|-----------------------------------------------------------------------|
a|--10(x12)--8(x12)--13(x12)--12(x12)--10(x12)--8(x12)--13(x12)--12(x7)--|
D|-----------------------------------------------------------------------|

Guitar Solo: 

g|------------------------------------------------------------------------|
d|------------------------------------------------------------------------|
a|--10(x12)--8(x12)--13(x12)--12(x12)--10(x12)--8(x12)--13(x12)--12(x12)--|
D|------------------------------------------------------------------------|

Pre chorus: 

g|---------------------------------------------------|
d|---------------------------------------------------|
a|--5-5-0-0-0-1--5-5-0-0-0-1-1-1-1--5-5-0-0-0-1------|
D|-----0------------0------------------0--------12\--|

Chorus:

g|---------------------------------------------------------------------------------|
d|---------------------------------------------------------------------------------|
a|--1-1--1-1--1-1--1-1--1-1--1-1--1-1--1-1-----------------------------------------|
D|-----------------------------------------0-0--0-0--0-0--0-0--2-2--2-2--2-2--2-2--|


Play four times, except on the fourth, play:

g|----------------------------------------------------------------------------------|
d|----------------------------------------------------------------------------------|
a|--1-1--1-1--1-1--1-1--1-1--1-1--1-1--1-1--3-3--3-3--3-3--3-3--4-4--4-4--4-4--4-4--|
D|----------------------------------------------------------------------------------|
Outro:

g|--------------------------------------------------xx-x-xx-x-xx-x-xx--|
d|--------------------------------------------------xx-x-xx-x-xx-x-xx--|
a|--5-5-0-0-0-1--5-5-0-0-0-1-1-1-1--5-5-0-0-0-1--5--xx-x-xx-x-xx-x-xx--|
D|-----0------------0------------------0------------xx-x-xx-x-xx-x-xx--|

Sorry for any mistakes, I couldn't find any tabs for it, so I thought i'd give it 
a shot, if you want to tell me anything, here's my email (:


Happy playing! 
            
Submit corrections

comments powered by Disqus
↑ Back to top | Falling In Reverse Bass for Pick Up The Phone. Lyrics for acoustic guitar and electric guitar. 1 Tablatures and chords are parodies/interpretations of the original songs. You may use it for private study, scholarship, research or language learning purposes only