» » »

Falling In Reverse, Listen Up Bass tabs (ver.1)

Artists:  A B C D E F G H I J K L M N O P Q R S T U V W X Y Z # 

Listen Up Bass tabs (ver.1)

Falling In Reverse Tabs
 Rating:
4/5 (4 votes)
Listen Up lessons Tabs too difficult? Try these video lessons and learn fast
                drop C tuning

F|----------------|
C|----------------|
G|----------------|
C|-33--33--3(x16)-|

|---------------------------------------------------------------------|
|---------------------------------------------------------------------|
|-----------------------------------1111-11-11111111-3333-33-33333333-|x2
|-3333-33-33333333-5555-55-55555555-----------------------------------|

|-----------------------------------|
|-----------------------------------|
|-------------------5(x16)---1(x16)-|x2
|-3(x16)---5(x16)-------------------|

|--------------------------------------------------|
|--------------------------------------------------|
|----------------------------------5(x16)---3(x16)-|x2
|-3333-33-33-3333-5555-55-55555555-----------------|

|---------------------------------------------------------------------|
|---------------------------------------------------------------------|
|-----------------------------------1111-11-11111111-3333-33-33333333-|
|-3333-33-33333333-5555-55-55555555-----------------------------------|

|-----------------------------------|
|-----------------------------------|
|-------------------5(x16)---1(x16)-|x2
|-3(x16)---5(x16)-------------------|

|--------------------------------------------------|
|--------------------------------------------------|
|----------------------------------5(x16)---3(x16)-|x2
|-3333-33-33-3333-5555-55-55555555-----------------|

|---------------------|
|---------------------|
|-----------5555-1101-|x6
|-3333-5555-----------|

|--------------------------------------------------|  |----|
|--------------------------------------------------|  |----|
|----------------------------------5(x16)---3(x16)-|x2|----|
|-3333-33-33-3333-5555-55-55555555-----------------|  |-33-|
            
Submit corrections

comments powered by Disqus
↑ Back to top | Falling In Reverse Bass for Listen Up. Lyrics for acoustic guitar and electric guitar. Tablatures and chords are parodies/interpretations of the original songs. You may use it for private study, scholarship, research or language learning purposes only