» » »

Falling In Reverse, Good Girls Bad Guys Bass tabs (ver.1)

Artists:  A B C D E F G H I J K L M N O P Q R S T U V W X Y Z # 

Good Girls Bad Guys Bass tabs (ver.1)

Falling In Reverse Tabs
 Rating:
4.2/5 (5 votes)
Good Girls Bad Guys lessons Tabs too difficult? Try these video lessons and learn fast
                Intro
0:10
F|-------------------|
C|-------------------|
G|-11111111-33333333-|
C|-------------------|

Pre Verse
0:14
F|------------------------------------------------------|
C|---------------------3~-------------------------------|
G|-5535--111-333-5535----4~-5535--11~-33~-5535-3~-3/7\0-|
C|------------------------------------------------------|

Verse
0:29
F|---------------------------------------------------|
C|---------------------3~-----------------------3~---|
G|-5535--111-333-5535----4~-5535--11~-33~-5535----4~-|
C|---------------------------------------------------|

Pre Chorus
0:42
F|-------------------------------------------------------------------|
C|-------------------------------------------------------------------|
G|-5(x16)---4(x16)---1(x16)---3(x16)---5(x16)---4(x16)---1~--0~-3-44-|
C|-------------------------------------------------------------------|

Chorus
0:55
F|---------------------------------------|
C|---------------------------------------|
G|-555-1-111------3333-11111111-33333333-|x2
C|-----------3333------------------------|

Pre Verse
1:08
F|--------------------------|
C|---------------------3~---|
G|-5535--111-333-5535----4~-|
C|--------------------------|

Verse
1:10
F|---------------------------------------------------|
C|---------------------3~~----------------------3~---|
G|-5535--11~-33~-5535-------5535--11~-33~-5535----4~-|
C|---------------------------------------------------|

Pre Chorus
1:27
F|-------------------------------------------------------------------|
C|-------------------------------------------------------------------|
G|-5(x16)---4(x16)---1(x16)---3(x16)---5(x16)---4(x16)---1~--0~-3-44-|
C|-------------------------------------------------------------------|

Chorus
1:40
F|--------------------------------------|
C|--------------------------------------|
G|-555-1-111-----3333-11111111-33333333-|x2
C|-----------3333-----------------------|

Post Chorus
1:54
F|-----------------------|
C|-----------------------|
G|-----1-3~-----11111131-|
C|-0~~------0~~----------|

Breakdown(Pre Solo)
2:00
F|------------------------------------|
C|------------------------------------|
G|----------------------------111-333-|x2
C|-33333333-22222222-00000000---------|

Solo
2:13
F|------------------------------------------------------|
C|---------------------3~------------------------3~--3\-|
G|-5535--11~-33~-5535----4~---5535--11~-33~-5535---4~---|
C|------------------------------------------------------|

~break~

Chorus
2:37                          x3
F|------|----------------------|-------------------|
C|------|o--------------------o|-------------------|
G|--33--|o-555-1-111-----3333-o|-11111111-33333333-|
C|------|------------3333------|-------------------|

                       x3
F|----------------------|--------------------------------------------|
C|o--------------------o|--------------------------------------------|
G|o-555-1-111-----3333-o|-11111111-33333333-11111111-33333353--5535\-|
C|------------3333------|--------------------------------------------|
            
Submit corrections

comments powered by Disqus
↑ Back to top | Falling In Reverse Bass for Good Girls Bad Guys. Lyrics for acoustic guitar and electric guitar. Tablatures and chords are parodies/interpretations of the original songs. You may use it for private study, scholarship, research or language learning purposes only