>
 >
Goodbye Graceful

Goodbye Graceful Bass Tabs

Falling In Reverse - Goodbye Graceful chords, tabs, tablatures, lyrics

Guitar lessons | Add/correct | Request | Top 50 tabs Artists:  A B C D E F G H I J K L M N O P Q R S T U V W X Y Z 0-9

Goodbye Graceful Bass Tabs – Falling In Reverse

CD, Sheet music, Poster

Do you like Goodbye Graceful? Share with your friends now
Bass TabsTabs
F|------------------------------------------------------------------------------------|
C|------------------------------------------------------------------------------------|
G|------------------------------------------------------------------------------------|
C|-5\-0(x10)-00-000-0(x8)-0(x10)-00-000-0(x8)-0(x10)-00-000-0(x8)-0(x10)-00-000-0(x8)-|

0:12
F|------------------------------------------------------------|
C|------------------------------------------------------------|
G|------------------------------------------------------------|
C|-0-0-0-0-0(x8)--0-0-0-0-0(x8)--0-0-0-0-0(x8)--0-0-0-0-0(x8)-|

F|---------------------------------------------------------|
C|---------------------------------------------------------|
G|---------------------------------------------------------|
C|-0-0-0-0-0(x8)--0-0-0-0-0(x8)--0-0-0-0-0(x8)--0-0-0-0-0--|

0:25
F|-------------------------------------------------------------|
C|-------------------------------------------------------------|
G|-1-1(x14)-------------------0-1(x10)-3(x4)-------------------|
C|------------0-0(x8)--3(x6)-----------------5-3(x8)-35-13-135-|

F|------------------------------------------------------------------|
C|------------------------------------------------------------------|
G|-0-1(x14)-------------------0-1(x10)-3(x4)------------------------|
C|------------0-0(x8)--3(x6)-----------------5-3(x8)-35-13-135-3510-|

0:53
F|-------------------------------------------------------------|
C|-------------------------------------------------------------|
G|-------------------------------------------------------------|
C|-0(x10)-00--0(x18)-00--000000-0(x10)-00---0(x10)-00---000000-|

1:05
F|--------------------------------------------------------------------------|
C|--------------------------------------------------------------------------|
G|-------------------------------------------------------0--------0---------|
C|-0(x10)-00--0(x18)-00--000000-0(x10)-00---0(x10)-00--35-10135-35-10135-75-|

1:24
F|--------------------------------------------------|
C|--------------------------------------------------|
G|-----------------0-1(x10)-3(x4)-------------------|
C|-0-0(x8)--3(x6)-----------------5-3(x8)-35-13-135-|

F|-----------------------------------------------------------------------|
C|-----------------------------------------------------------------------|
G|-0-1(x14)-------------------0-1(x10)-3(x4)-----------------------------|
C|------------0-0(x8)--3(x6)-----------------5-3(x8)-35-13-135-35-13-135-|

1:48
F|---------------------------------------------------------------|
C|---------------------------------------------------------------|
G|---------3-33--------------------3-33-----------3-33-----------|
C|-5(x16)-------0-1-1(x7)--5(x16)-------0-1-1(x7)------0-1~--0~--|

 2:10    2:14
F|----------------|
C|----------------|
G|----------------|
C|-0------0--6856-|

2:17
F|-----------------------------------------------------------|
C|-----------------------------------------------------------|
G|-----------------------------------------------------------|
C|-0-0111-0-0111-0-0111-011-011-0-0111-0-0111-0-0111-500-700-|

F|-----------------------------------------------------------|
C|-----------------------------------------------------------|
G|-----------------------------------------------------------|
C|-0-0111-0-0111-0-0111-022-011-0-0111-0-0111-0-600800500600-|

2:29
F|------------------------------------|
C|------------------------------------|
G|------------------------------------|
C|-8-7-6-5-6-5-4-3-5-4-3-2-3-2-1--0---|

2:38
F|----------------------------------------------------|
C|----------------------------------------------------|
G|--------1(x8)-0000----------------------------------|
C|-5(x16)-----------3333-11111-111111-1-1-11111-11111-|

F|-----------------------------------------------------|
C|-----------------------------------------------------|
G|------------------11111-11-000-----------------------|
C|-55555-555555-5-5--------------333-11111-111111-1-11-|

2:51
F|----------------------------------------------------------|
C|----------------------------------------------------------|
G|----------------------------------------------------------|
C|-0(x14)--000-0-00-0(x14)-000-0-00-0(x14)-0--0-0(x14)-0-53-|

3:04
F|-------------------------------------------------------------|
C|-------------------------------------------------------------|
G|-1-1(x14)-------------------0-1(x10)-3(x4)-------------------|
C|------------0-0(x8)--3(x6)-----------------5-3(x8)-35-13-135-|

F|------------------------------------------------------------------|
C|------------------------------------------------------------------|
G|-0-1(x14)-------------------0-1(x10)-3(x4)------------------------|
C|------------0-0(x8)--3(x6)-----------------5-3(x8)-35-13-135-3510-|

3:31
F|----------------------------------------------------------------|
C|----------------------------------------------------------------|
G|----------------------------------------------------------------|x4
C|-0(x10)-00--0(x6)-0(x10)-00--01-1-11-0(x10)-00--0000-0(x10)-00--|

F|------------------------------------------------------------------------|
C|------------------------------------------------------------------------|
G|------------------------------------------------------------------------|x2
C|-0(x10)-00--0(x6)-0(x10)-00--01-1-11-0(x10)-00--0000-0(x10)-00--01-1-11-|





Comments


Popular Falling In Reverse tabs & chords
Champion Bass Tabs
Drifter Bass Tabs
Fashionably Late 2 Bass Tabs
Raised By Wolves Bass Tabs
Where Have You Been Bass Tabs
Game Over Chords
The Departure Tabs
This Is Not The End Tabs
Caught Like A Fly Ukulele
The Drug In Me Is You Ukulele


Song lyrics



↑ Back to top | Tablatures and chords are parodies/interpretations of the original songs. You may use it for private study, scholarship, research or language learning purposes only
© 2014 AZChords.com Contact us | Privacy policy | DMCA | Add/correct tabs | Request tabs | Top 50 tabs