» » »

Falling In Reverse, Dont Mess With Ouija Boards Bass tabs (ver.1)

Artists:  A B C D E F G H I J K L M N O P Q R S T U V W X Y Z # 

Dont Mess With Ouija Boards Bass tabs (ver.1)

Falling In Reverse Tabs
Rating:
0/5 (0 votes)
Dont Mess With Ouija Boards lessons Tabs too difficult? Try these video lessons and learn fast
                F|---------------------------------------------------------------------------------|
C|---------------------------------------------------------------------------------|
G|-----0~~-3~~-5~-4~------------------00000-0-00000-0-33333-3-33333-3-5(x8)-4(x8)--|
C|-0~~---------------00000-0-00000-0-----------------------------------------------|

F|----------------------------------------------|
C|----------------------------------------------|
G|-----------------------------------------4~0~-|
C|-0~0(x14)---0~0(x14)---5~5(x14)--5~5(x8)------|

F|---------------------------------------------|
C|---------------------------------------------|
G|-----------------------------------------4-0-|
C|-0-0000-000-0-0000-000-5-5555-555-5-5555-----|

~break~

F|------------------------------------|
C|--------------------------3(x8)--5--|
G|-3(x16)---1(x16)---5(x16)-----------|
C|------------------------------------|

F|-------------------------------------------------------------------------|
C|-------------------------------------------------------------------------|
G|-3(x8)--1(x8)-------------------33333335-11111135---------------------0~-|
C|---------------0(x8)--44445555--------------------0(x8)--44445555--0~----|

F|------------------------------------------|
C|------------------------------------------|
G|------------------------------------------|
C|-0~0(x14)---0~0(x14)---5~5(x14)--5~5(x8)--|

F|------------------------------------------|
C|------------------------------------------|
G|--------------------------------0(x8)--4~-|
C|-0-0000-000-0-0000-000-5(x16)-------------|

F|------------------------------------------------------------------|
C|------------------------------------------------------------------|
G|-3(x8)--1(x8)-------------------33333335-11111135-----------------|
C|---------------0(x8)--44445555--------------------0(x8)--44445555-|

F|----------------------|
C|----------------------|
G|-----0~~-3~~-5~-4~----|
C|-0~~---------------0--|

F|--------------------------------------------------------------------------|
C|--------------------------------------------------------------------------|
G|-1310--------------------------1310-------------1310-------------1310-----|
C|-----5753-0-043-354----0(x24)------5753-0(x24)------5753-0(x24)------5753-|

F|---------------------------------------------------|
C|---------------------------------------------------|
G|---------1310---------------------0000-00-1310-----|
C|-0(x24)------5753-5555-55-5555-55-------------5753-|

F|---------------------------------------------------|
C|---------------------------------------------------|
G|---------1310---------------------0000-00-1310-----|
C|-0(x24)------5753-5555-55-5555-55-------------5753-|

F|-----------------------------------|
C|-----------------------------------|
G|---------1310-------------1310-----|
C|-0(x24)------5753-0(x24)------5753-|

F|-------------------------------------------------------------------------------|
C|-------------------------------------------------------------------------------|
G|-11111113-111111345----------------------11111113-111111345--------------------|
C|--------------------0000000-00-3333333-33-------------------0000000-00-3333-3\-|

F|-----------------------------------------------------------|
C|-----------------------------------------------------------|
G|-----------------------------------------------------------|
C|-0-0000---0000-0-0000--0000-000000-0-0000---0000-0-0000----|

F|----------------------------------------------------------------------|
C|----------------------------------------------------------------------|
G|----------------------------------------------------------------------|
C|-0-0000---0000-0-0000--0000-000000-0-0000---0000-0-0000--0000-000000--|

F|-----------------|
C|-----------------|
G|-----0~~-----0~~-|
C|-0~~-----0~~-----|

F|------------------------------------|
C|--------------------------3(x8)--5--|
G|-3(x16)---1(x16)---5(x16)-----------|
C|------------------------------------|

F|------------------------------------------------------------------|
C|------------------------------------------------------------------|
G|-3(x8)--1(x8)-------------------33333335-11111135-----------------|
C|---------------0(x8)--44445555--------------------0(x8)--44445555-|

F|-----------------------------------------------------------------|
C|-----------------------------------------------------------------|
G|-3(x8)--1(x8)-------------------33333335-11111135----------------|
C|---------------0(x8)--44445555--------------------0(x8)--44445\--|

F|-------------------------------------------------------------------|
C|-------------------------------------------------------------------|
G|-------------------------------------------------------------------|
C|-0-0000---0000-0-0000--0000-000000-0-0000---0000-0-0000--xxxx-xxxx-|

F|---------------------------------------------------------------------|
C|---------------------------------------------------------------------|
G|---------------------------------------------------------------------|
C|-0-0000---0000-0-0000--0000-000000-0-0000---0000-0-0000--0000-000000-|

It ain't perfect, but enjoy!
            
Submit corrections

comments powered by Disqus
↑ Back to top | Falling In Reverse Bass for Dont Mess With Ouija Boards. Lyrics for acoustic guitar and electric guitar. Tablatures and chords are parodies/interpretations of the original songs. You may use it for private study, scholarship, research or language learning purposes only