>
 >
Rose Adore

Rose Adore Guitar Tabs

Falling Cycle - Rose Adore chords, tabs, tablatures, lyrics

Guitar lessons | Add/correct | Request | Top 50 tabs Artists:  A B C D E F G H I J K L M N O P Q R S T U V W X Y Z 0-9

Rose Adore Guitar Tabs – Falling Cycle

CD, Sheet music, Poster

Do you like Rose Adore? Share with your friends now
Tabs
* Palm Mute

  Guitar 1
D|-------------------|---------------------------------|  0:02
A|-------------------|---------------------------------|
F|-------------------|---------------------------------| *all strummed
C|-/-0-7-8-5-7-3-5-2-|-7-8-5-0h8h10-0h7h8-0h5h7-0h3h5--|
G|-/-----------------|---------------------------------|
C|-------------------|---------------------------------|
   
  Guitar 2
D|-------------------|---------------------------------|  0:02
A|-------------------|---------------------------------|
F|-------------------|---------------------------------| *all strummed 
C|-/-----------------|---------------------------------|
G|-/-0-8-10-7-8-5-7-4|-8-10-7-0h8h10-0h7h8-0h5h7-0h3h5-|
C|-------------------|---------------------------------|

  Guitar 1 & 2
D|---------------------------------------------|  0:32
A|---------------------------------------------|
F|---------------------------------------------|
C|---------------------------------------------|
G|-0--0-000-000--000-000--0-000-000--0-8-0-7-8-|
C|-0--0-000-000--000-000--0-000-000--0-8-0-7-8-|
   *  * *** ***  *** ***  * *** ***
  Guitar 1 & 2
D|---------| 0:44
A|---------|
F|-5-3-2---| *all strummed
C|-------0-|
G|---------|
C|---------|
 
  Guitar 1 & 2  
D|-------------------------------| 0:46 
A|-------------------------------|
F|-----------------------5-3-2---| *all strummed
C|-0-7-5-3-5-3-2----7-5-3-----3--|
G|---------------3---------------|
C|-------------------------------|
  
D|-------------------------------|
A|-------------------------------|
F|-------------------------------| *all strummed
C|-0-7-5-3-5-3-2----2--3--0------|
G|---------------3-----------4---|
C|-------------------------------|

  Guitar 1 & 2
D|------------------------------| 1:06
A|------------------------------|
F|------------------------------|
C|------------------------------|
G|-0-0000-4-3-1-0000-3333-7777--|
C|-0-0000-4-3-1-0000------------|
   * **** * * * ****
  Guitar 1 & 2  
D|------------------------------------------------------| 1:38
A|------------------------------------------------------|
F|------------------------------------------------------| *all strummed
C|------------------------------------------------------|
G|---------8----7------1010108---------8----7-----------|
C|-00-0-00---00---0000---------00-0-00---00---0000-8887-|
   **   **   **   ****         **   **   **   ****
D|------------------------------------------------------|
A|------------------------------------------------------|
F|------------------------------------------------------| *all strummed
C|-------------------------------8-----------10---------|
G|---------8----7------1010108---8-----------10---------|
C|-00-0-00---00---0000-----------8-----------10---------|
   **   **   **   ****  
  Guitar 1 & 2 
D|-------------------------------| 2:10
A|-------------------------------|
F|-----------------------5-3-2---| *all strummed
C|-0-7-5-3-5-3-2----7-5-3-----3--|
G|---------------3---------------|
C|-------------------------------|

D|-------------------------------|
A|-------------------------------|
F|-------------------------------| *all strummed
C|-0-7-5-3-5-3-2----2--3--0------|
G|---------------3-----------4---|
C|-------------------------------|

  Guitar 1 & 2  
D|---------------| 2:46
A|---------------|
F|---------------|
C|---------------|
G|-0--0-000-000--|
C|-0--0-000-000--|
   *  * *** ***
  Guitar 1 & 2  
D|---------------------------------------------| 2:50
A|---------------------------------------------|
F|---------------------------------------------|
C|---------------------------------------------|
G|-0--0-000-000--000-000--0-000-000--0-8-0-7-8-|
C|-0--0-000-000--000-000--0-000-000--0-8-0-7-8-|
   *  * *** ***  *** ***  * *** ***





Comments


Popular Falling Cycle tabs & chords
Heart Turns Black Bass Tabs
I Still Dream (Part I) Tabs
I Still Dream Part Tabs
Repair Tabs


Song lyrics



↑ Back to top | Tablatures and chords are parodies/interpretations of the original songs. You may use it for private study, scholarship, research or language learning purposes only
© 2014 AZChords.com Contact us | Privacy policy | DMCA | Add/correct tabs | Request tabs | Top 50 tabs