>
 >
Repair

Repair Guitar Tabs

Falling Cycle - Repair chords, tabs, tablatures, lyrics

Guitar lessons | Add/correct | Request | Top 50 tabs Artists:  A B C D E F G H I J K L M N O P Q R S T U V W X Y Z 0-9

Repair Guitar Tabs – Falling Cycle

CD, Sheet music, Poster

Do you like Repair? Share with your friends now
Tabs
Tuning: CGCFAD
 
  0:00 + 0:31	          0:08 + 0:31			 
D|-----------------|	|--------------------|   |----------------|
A|-----------------|	|--------------------|   |----------------|
F|-----------------|	|-7-5-3-5-3-2-2h3p2--|   |-7-5-3-5-3-2-3--|
C|--3---2---5-0----|	|--------------------|   |----------------|
G|--3---2---5-0----|	|--------------------|   |----------------|
C|--3---2---5-0----|	|--------------------|   |----------------|
  guitar 1		 guitar 2                 every forth riff 

  0:13
D|----------------|
A|----------------|
F|----------------|
C|-7-5-3-5-3-2-3--|
G|-7-5-3-5-3-2-3--|
C|-7-5-3-5-3-2-3--|
  guitar 1&2

  0:45	               0:46	  0:51
D|-----------------|   |------------| |-----------------|
A|-----------------|   |------------| |-----------------|
F|--7-5-3-5-3-2~---|   |------------| |--7-5-3-5-3-2~---|
C|-----------------|   |-0--0--3-5--| |-----------------|
G|-----------------|   |-0--0--3-5--| |-----------------|
C|-----------------|   |-0--0--3-5--| |-----------------|
  guitar 1              guitar 1&2     guitar 1

  0:58						    
D|-----------------------------------|------------------| 
A|-----------------------------------|------------------| 
F|-----------------------------------|------------------|
C|--12-10-8-7-8--7-------------------|--12-10-8-10--8-7-| 
G|------------------10-8-10--8-10-12-|------------------| 
C|-----------------------------------|------------------| 
  guitar 1 		           guitar 1&2        
  
  1:07				
D|---------------------------------------------|
A|---------------------------------------------|
F|-10-8-7-5-7--5-3-2-3--2-3-5--8-7-5-7--5-3----|
C|---------------------------------------------|
G|---------------------------------------------|
C|---------------------------------------------|
  guitar 1

  1:07				
D|----------------------------------------------------|
A|----------------------------------------------------|
F|----------------------------------------------------|
C|--12-10-8-7-8--7--------------------12-10-8-10--8-7-|
G|------------------10-8-10--8-10-12------------------|
C|----------------------------------------------------|
  guitar 2

  1:26			 1:41
D|-----------------------| 	|------------------------|
A|-----------------------| 	|------------------------|
F|-----------------------|	|------------------------|
C|-00000---0---0---0---0-|	|-00000--0-0--00000--0-0-|
G|-00000---0---0---0---0-|	|-00000--0-0--00000--0-0-|
C|-00000---0---0---0---0-| 	|-00000--0-0--00000--0-0-|
  guitar 1&2	       	 guitar 1&2 then gets slow

  2:11
D|-------------------|
A|-------------------|
F|-------------------|
C|---3-5-7-8-7-5-----|
G|-------------------|
C|-------------------|
  guitar 1

  2:24		       2:26
D|---------------------| |-------------------------------------------|
A|---------------------| |-------------------------------------------|
F|-7-5-3-2--8-6-5-3----| |-9-7-5-4-5--4-2-0-2--4-5-7--9-7-5-7--5-4---|
C|---------------------| |-------------------------------------------|
G|---------------------| |-------------------------------------------|
C|---------------------| |-------------------------------------------|
  guitar 1                guitar 1
 
  2:24		       2:26
D|---------------------| |--------------------------------------------|
A|---------------------| |--------------------------------------------|
F|---------------------| |--------------------------------------------|
C|-3--------5----------| |-0-0-0-0--5-5-5-5--3-3-3-3--7-7-7-7-7-7-7-7-|
G|-3--------5----------| |-0-0-0-0--5-5-5-5--3-3-3-3--7-7-7-7-7-7-7-7-|
C|-3--------5----------| |-0-0-0-0--5-5-5-5--3-3-3-3--7-7-7-7-7-7-7-7-|
  guitar 2	        guitar 2

  2:45	                 2:45
D|---------------------| |-------------------------|
A|---------------------| |-------------------------|
F|---------------------| |-10-12-14-15-17-15-14-12-|
C|-3-5-7-8-10-8-7-5-3--| |-------------------------| strum each note 16 times
G|---------------------| |-------------------------| guitars do their riff twice
C|---------------------| |-------------------------|
  guitar 1	        guitar 2

  3:12 to end
D|------------------------|
A|------------------------|
F|------------------------|
C|-00000--0-0--00000--0-0-|
G|-00000--0-0--00000--0-0-|
C|-00000--0-0--00000--0-0-|
 guitar 1&2

Chou





Comments


Popular Falling Cycle tabs & chords
Heart Turns Black Bass Tabs
I Still Dream (Part I) Tabs
I Still Dream Part Tabs
Rose Adore Tabs


Song lyrics



↑ Back to top | Tablatures and chords are parodies/interpretations of the original songs. You may use it for private study, scholarship, research or language learning purposes only
© 2014 AZChords.com Contact us | Privacy policy | DMCA | Add/correct tabs | Request tabs | Top 50 tabs