» » »

Falling Cycle, I Still Dream (Part I) Tabs (ver.1)

Artists:  A B C D E F G H I J K L M N O P Q R S T U V W X Y Z # 

I Still Dream (Part I) Tabs (ver.1)

Falling Cycle Tabs
Rating:
0/5 (0 votes)
I Still Dream (Part I) lessons Tabs too difficult? Try these video lessons and learn fast
                -------------------------------------------------------------------------------
-------------------------------------------------------------------------------

Listen to song for the rhythm.

Tuning:Drop D: DADGBE

e|---------------------------------------------------------------------------|
B|---------------------------------------------------------------------------|
G|---------------------------------------------------------------------------|
D|---------------------------------------------------------------------------|
A|-----0----5-5-------8---8----7---7-(3x)----8----7----5----3-5---------------
D|---0---0------0---8---8----7---7---------8---8----7----5-------------------|

e|---------------------------------------------------------------------------|
B|---------------------------------------------------------------------------|
G|---------------------------------------------------------------------------|
D|---------------------------------------------------------------------------|
A|-----0----5-5-----7-8-7-5-1-0-----0----5-5-----7-8-7-5-7-7-----------------|
D|---0---0-------0----------------0---0-------0------------------------------|

e|---------------------------------------------------------------------------|
B|---------------------------------------------------------------------------|
G|---------------------------------------------------------------------------|
D|---------------------------------------------------------------------------|
A|-----0----5-5----(7-8-7-5-1-0)-(3x)-----------------------------------------|
D|---0---0-------0------------------------------------------------------------

e|---------------------------------------------------------------------------|
B|---------------------------------------------------------------------------|
G|---------------------------------------------------------------------------|
D|---------------------------------------------------------------------------|
A|-----0-----5-5-----7-8-7-5-1-0----0-----5-5-----7-8-7-5-7-7-----------------
D|---0---0-------0----------------0---0-------0-------------------------------

e|---------------------------------------------------------------------------|
B|---------------------------------------------------------------------------|
G|---------------------------------------------------------------------------|
D|---------------------------------------------------------------------------|
A|-----0----5-5---(7-8-7-5-1-0)-(3x)-----------------------------------------|
D|---0---0------0-------------------------------------------------------------


e|---------------------------------------------------------------------------|
B|---------------------------------------------------------------------------|
G|---------------------------------------------------------------------------|
D|---------------------------------------------------------------------------|
A|---------------------------------------------------------------------------|
E|-----0-----5-5-----7-8-7-5-1-0----0-----5-5-----7-8-7-5-7-7-----------------
E|---0---0-------0----------------0---0-------0-------------------------------

e|---------------------------------------------------------------------------|
B|---------------------------------------------------------------------------|
G|---------------------------------------------------------------------------|
D|---------------------------------------------------------------------------|
A|-----0----5-5---(7-8-7-5-1-0)-(7x)-0-0-------------------------------------|
E|---0---0------0------------------------------------------------------------


e|---------------------------------------------------------------------------|
B|---------------------------------------------------------------------------|
G|---------------------------------------------------------------------------|
D|---------------------------------------------------------------------------|
A|--(7-8-7-3-5)-(2x)---7-8-7-3/12-10-8-7---Repeat-(3x)------------------------
E|---------------------------------------------------------------------------|

e|---------------------------------------------------------------------------|
B|---------------------------------------------------------------------------|
G|---------------------------------------------------------------------------|
D|---------------------------------------------------------------------------|
A|--(7-8-7-3-5)-(2x)---7-8-7-3/12-10-8-7---7-7-3-5----------------------------
E|---------------------------------------------------------------------------|



| /  slide up
| \  slide down
| h  hammer-on
| p  pull-off
| ~  vibrato
| +  harmonic
| x  Mute note
===============================================================================
            
Submit corrections

comments powered by Disqus
↑ Back to top | Falling Cycle Tabs for I Still Dream (Part I). Lyrics for acoustic guitar and electric guitar. Tablatures and chords are parodies/interpretations of the original songs. You may use it for private study, scholarship, research or language learning purposes only