>
 >
I Still Dream Part

I Still Dream Part Guitar Tabs

Falling Cycle - I Still Dream Part chords, tabs, tablatures, lyrics

Guitar lessons | Add/correct | Request | Top 50 tabs Artists:  A B C D E F G H I J K L M N O P Q R S T U V W X Y Z 0-9

I Still Dream Part Guitar Tabs – Falling Cycle

CD, Sheet music, Poster

Do you like I Still Dream Part? Share with your friends now
Tabs
Tuning: CGCFAD

---------------------|--------------- Track 1 Piano, Comes in 0:00
---------------------|---------------
---------------------|---------------
-0-12-12-12-7-6-7-6--|--7-6-7-6-5----
0-0--0--0--0-0-0-0---|----------7----
---------------------|-5-5-5-5-------

C      Dm 
-----------------------|------------- Track 2 Piano, Comes in 0:22
-----------------------|-------------
-----------------------|-------------
7-9-7--7-9-10-9-7--3-2-|-9-9---------
-----------------------|-------------
-----------------------|-------------
1st,3rd Repeats(w/o 3-2)  End of 2nd Time 

15--13-12-13-12-10------------------ Track 3 Piano, Comes in 1:05
------------------------------------
------------------------------------
------------------------------------
------------------------------------
------------------------------------

------------------------------------ Track 2 Piano, Comes in 1:28
------------------------------------
------------------------------------
--0-0-0-0-0-0-0-0-0--0--------------
-0-0-0-0-0-0-0-0-0-0-0-------------- 
------------------------------------

             C  D          C   D          G 
--------------------------------------------------------- Track 4 piano, Comes in 1:36
-----------------------------------------10-8-6-5-5------
-9--10-9-5-5/7--9--10-9-5-5/7--9--10-9-5------------(10)-
---------------------------------------------------------
---------------------------------------------------------
---------------------------------------------------------

lovely... i mostly play everythin in Drop C, just play 2 frets up if in standard

 0 1 2 3 4 5 6 7 8 9 10

|D| |E|F| |G| |A| |B|C|
|A| |B|C| |D| |E|F| |G|
|F| |G| |A| |B|C| |D| |
|C| |D| |E|F| |G| |A| |
|G| |A| |B|C| |D| |E|F|
|C| |D| |E|F| |G| |A| |    <--- attempting to work out the chords, no luck lol





Comments


Popular Falling Cycle tabs & chords
Heart Turns Black Bass Tabs
I Still Dream (Part I) Tabs
Repair Tabs
Rose Adore Tabs


Song lyrics



↑ Back to top | Tablatures and chords are parodies/interpretations of the original songs. You may use it for private study, scholarship, research or language learning purposes only
© 2014 AZChords.com Contact us | Privacy policy | DMCA | Add/correct tabs | Request tabs | Top 50 tabs