» » »

Heart Turns Black Bass tabs (ver.1)

Artists:  A B C D E F G H I J K L M N O P Q R S T U V W X Y Z # 

Heart Turns Black Bass tabs (ver.1)

Falling Cycle
Rating:
0/5 (0 votes)

Hard to play? Try these video lessons and learn fast.
                C Tuning: (C G C F)
~= Hold note
= Strum note/ Listen to song for rhythm

This is an awesome song that is really fun to play. You can easily
figure out the guitar riffs on the bass by using the notes
in the tab, and if your in a band with only one guitarist (like I am, 
guitar parts on bass and it sounds awesome. Listen to the CD for
Rhythms all I'm giving you is the notes.



Intro - 
F|-------------------------------------
C|-------------------------------------
G|-------3~---1~----3~-----------------
C|0~-----------------------------------

0:29 - Strum Same Note Pattern except in
       Eighth notes.

Pre-Verse - 0:57 
F|-----|----------------------
C|-----|-----7-7--5-5--3-3----
G|-----|-------------------7-7
C|--0--|----------------------
 (Listen to the song and hit the open C at the right times during
 the opening guitar lick)



Verse - 1:05
F|---------------------------------------------------------
C|--------------------------7----------------77-55-33------
G|---7h8-7h8----7h8-7h8-----------7h8-7h8-------------77---
C|00---------00---------00-----00---------00---------------

Breakdown - 1:23
(Same notes and pattern as verse, just slower)

Pre-Chorus - 1:48
F|-------------------------------------
C|-------------------------------------
G|1~------------3~---------------------
C|-------------------------------------

Chorus - 1:53
"You will never know, how much, how much you mean to him..."
F|-------------------------------------
C|-------------------------------------  3 Times
G|---------3>-------1>--------3>-------
C|0>-----------------------------------

F|-------------------------------------
C|-------------------------------------  4th Time
G|5>-------3>-------1>--------3>-------
C|------------------------------------- 


Breakdown 2 - 2:28
            "I WATCHED, YOUR HEART!!"
F|-----------------------------------------------------
C|-----------------------------------------------------
G|------------------------------------(Guitar Comes In)
C|0~~~~~~~~~-------------------------------------------
   2:42
F|-----------------------------------------------------
C|-----------------------------------------------------
G|-----------------------------------------------------
C|0~~~~---------------------------------0-0-0-0-0-0-0-0


   2:49
F|-----------------------------------------------------
C|-----------------------------------------------------
G|-------------7---------------7---------------7-------
C|0-0-8--7h8-0----0-0-8--7h8-0----0-0-8--7h8-0---------

F|-------------------------------------
C|7-7--5-5--3-3------------------------
G|---------------7-7-------------------  4 Times
C|-------------------------------------


Chorus #2 - 3:16
F|-------------------------------------
C|-------------------------------------
G|----------3>--------1>--------3>-----
C|0>-----------------------------------

F|-------------------------------------
C|-------------------------------------
G|5>--------3>--------1>--------3>-----
C|-------------------------------------

Final Breakdown - 3:34
F|-------------------------------------
C|-------------------------------------
G|-------------------------------------
C|0~~~~~~~~~~~~~~~~~~~~~~~`------------

 3:40  "I!!"       "WATCHED!!"
F|-------------------------------------
C|-------------------------------------
G|-------------------------------------
C|00000-------00000--------------------

       "YOUR HEART TURN BLACK!"
F|-------------------------------------
C|-----------7-7--5-5--3-3-------------
G|--------------------------7--7-------
C|00000--------------------------------

       "I!!"       "WATCHED!!"
F|-------------------------------------
C|-------------------------------------
G|-------------------------------------
C|00000-------00000--------------------

       "YOUR HEART TURN BLACK!"
F|-------------------------------------
C|-----------7-7--5-5--3-3-------------
G|--------------------------7--7-------
C|00000---------------------------0~~~~

That's it. Enjoy.
XXX UNTIL DEATH.
            
Hard to play? Try these video lessons and learn fast. | Correct




comments powered by Disqus
↑ Back to top | Tablatures and chords are parodies/interpretations of the original songs. You may use it for private study, scholarship, research or language learning purposes only