» » »

Fallacy, Year Of Hate Tabs (ver.1)

Artists:  A B C D E F G H I J K L M N O P Q R S T U V W X Y Z # 

Year Of Hate Tabs (ver.1)

Fallacy Tabs
Rating:
0/5 (0 votes)
Year Of Hate lessons Tabs too difficult? Try these video lessons and learn fast
                ~Fallacy~

Intro
----------l
----------l
----------l
-00000000-l
-00000000-l
-00000000-l
pm.......

Course
-0-0-0-00-0-3-3-3-33-3-10-10-10-1010-10-10-10-10-1010-10\-0-0-0-00-0-3-3-3-33-3-10-10-10-1010-10-12-12-12-1212-12-l
-0-0-0-00-0-3-3-3-33-3-10-10-10-1010-10-10-10-10-1010-10\-0-0-0-00-0-3-3-3-33-3-10-10-10-1010-10-12-12-12-1212-12-l

Verse
-------------------------------------
-------------------------------------
-------------------------------------
-------------------------------------
-5-5-3-3-3-7-7-3-3-3-5-5-3-3-5-5-0-0-
-5-5-3-3-3-7-7-3-3-3-5-5-3-3-5-5-0-0-

Course
-0-0-0-00-0-3-3-3-33-3-10-10-10-1010-10-10-10-10-1010-10\-0-0-0-00-0-3-3-3-33-3-10-10-10-1010-10-12-12-12-1212-12-l
-0-0-0-00-0-3-3-3-33-3-10-10-10-1010-10-10-10-10-1010-10\-0-0-0-00-0-3-3-3-33-3-10-10-10-1010-10-12-12-12-1212-12-l

Verse
-------------------------------------
-------------------------------------
-------------------------------------
-------------------------------------
-5-5-3-3-3-7-7-3-3-3-5-5-3-3-5-5-0-0-
-5-5-3-3-3-7-7-3-3-3-5-5-3-3-5-5-0-0-

Course
-0-0-0-00-0-3-3-3-33-3-10-10-10-1010-10-10-10-10-1010-10\-0-0-0-00-0-3-3-3-33-3-10-10-10-1010-10-12-12-12-1212-12-l
-0-0-0-00-0-3-3-3-33-3-10-10-10-1010-10-10-10-10-1010-10\-0-0-0-00-0-3-3-3-33-3-10-10-10-1010-10-12-12-12-1212-12-l

Interlude
-0-0-0-00-0-3-3-3-33-3-10-10-10-1010-10-10-10-10-1010-10\-0-0-0-00-0-3-3-3-33-3-10-10-10-1010-10-12-12-12-1212-12-
-0-0-0-00-0-3-3-3-33-3-10-10-10-1010-10-10-10-10-1010-10\-0-0-0-00-0-3-3-3-33-3-10-10-10-1010-10-12-12-12-1212-12-

-0-0-0-00-0-3-3-3-33-3-10-10-10-1010-10-5-5-5-55-5-12-12-12-1212-12-7-7-7-77-7-7-l
-0-0-0-00-0-3-3-3-33-3-10-10-10-1010-10-5-5-5-55-5-12-12-12-1212-12-7-7-7-77-7-7-l

Bridge
-0000000033333333101010101010101055555555121212121212121277777777-l
-0000000033333333101010101010101055555555121212121212121277777777-l

Solo
-0---0---0---0---3---3---3---3---10----10----10----10----0---0---0---0---3---3---3---3---10----10----10----10----
---0---0---0---0---3---3---3---3----10----10----10----10---0---0---0---0---3---3---3---3----10----10----10----10-

-12----12----12----12----0---0---0---0---3---3---3---3---10----10----10----10----5---5---5---5---
----12----12----12----12---0---0---0---0---3---3---3---3----10----10----10----10---5---5---5---5-

-12----12----12----12----7---7---7---7---l
----12----12----12----12---7---7---7---7-l
-----------------------------------------l
-----------------------------------------l
-----------------------------------------l
-----------------------------------------l

Bridge
-0000000033333333101010101010101055555555121212121212121277777777-l
-0000000033333333101010101010101055555555121212121212121277777777-l

Bridge #2
-------------------------------------l
-------------------------------------l
-------------------------------------l
-------------------------------------l
-5-5-3-3-3-7-7-3-3-3-5-5-3-3-5-5-0-0-l
-5-5-3-3-3-7-7-3-3-3-5-5-3-3-5-5-0-0-l
pm...................................

Course
-0-0-0-00-0-3-3-3-33-3-10-10-10-1010-10-10-10-10-1010-10\-0-0-0-00-0-3-3-3-33-3-10-10-10-1010-10-12-12-12-1212-12-l
-0-0-0-00-0-3-3-3-33-3-10-10-10-1010-10-10-10-10-1010-10\-0-0-0-00-0-3-3-3-33-3-10-10-10-1010-10-12-12-12-1212-12-l
            
Submit corrections

comments powered by Disqus
↑ Back to top | Fallacy Tabs for Year Of Hate. Lyrics for acoustic guitar and electric guitar. Tablatures and chords are parodies/interpretations of the original songs. You may use it for private study, scholarship, research or language learning purposes only