» » »

Fallacy, Tip Off Tabs (ver.1)

Artists:  A B C D E F G H I J K L M N O P Q R S T U V W X Y Z # 

Tip Off Tabs (ver.1)

Fallacy Tabs
 Rating:
4/5 (4 votes)
Tip Off lessons Tabs too difficult? Try these video lessons and learn fast
                ~Fallacy~

Intro
-------0-----------0-----------0-----------0-------------0-----------0-----------0-----------0-------l
-----4---4-------4---4-------4---4-------4---4---------4---4-------4---4-------4---4-------4---4-----l
---2-------2---2-------2---0-------0---0-------0-----0-------0---0-------0---0-------0---0-------0---l
-0-----------0-----------0-----------0-----------0-2-----------2-----------3-----------3-----------3-l

Verse
-------0-----------0-----------0-----------0-------------0-----------0-----------0-----------0-------l
-----4---4-------4---4-------4---4-------4---4---------4---4-------4---4-------4---4-------4---4-----l
---2-------2---2-------2---0-------0---0-------0-----0-------0---0-------0---0-------0---0-------0---l
-0-----------0-----------0-----------0-----------0-2-----------2-----------3-----------3-----------3-l

Course
-----------------------------------------------------l
-----------------------------------------------------l
-4-4-4-44-4-4-2-2-2-22-2-2---------------------------l
-2-2-2-22-2-2-0-0-0-00-0-0-4-4-4-44-4-4-5-5-5-55-5-5-l
---------------------------2-2-2-22-2-2-3-3-3-33-3-3-l
-----------------------------------------------------l

Verse
-------0-----------0-----------0-----------0-------------0-----------0-----------0-----------0-------l
-----4---4-------4---4-------4---4-------4---4---------4---4-------4---4-------4---4-------4---4-----l
---2-------2---2-------2---0-------0---0-------0-----0-------0---0-------0---0-------0---0-------0---l
-0-----------0-----------0-----------0-----------0-2-----------2-----------3-----------3-----------3-l

Course
-----------------------------------------------------l
-----------------------------------------------------l
-4-4-4-44-4-4-2-2-2-22-2-2---------------------------l
-2-2-2-22-2-2-0-0-0-00-0-0-4-4-4-44-4-4-5-5-5-55-5-5-l
---------------------------2-2-2-22-2-2-3-3-3-33-3-3-l
-----------------------------------------------------l

Verse
-------0-----------0-----------0-----------0-------------0-----------0-----------0-----------0-------l
-----4---4-------4---4-------4---4-------4---4---------4---4-------4---4-------4---4-------4---4-----l
---2-------2---2-------2---0-------0---0-------0-----0-------0---0-------0---0-------0---0-------0---l
-0-----------0-----------0-----------0-----------0-2-----------2-----------3-----------3-----------3-l

Course
-----------------------------------------------------l
-----------------------------------------------------l
-4-4-4-44-4-4-2-2-2-22-2-2---------------------------l
-2-2-2-22-2-2-0-0-0-00-0-0-4-4-4-44-4-4-5-5-5-55-5-5-l
---------------------------2-2-2-22-2-2-3-3-3-33-3-3-l
-----------------------------------------------------l

Interlude
----------------------------------l
----------------------------------l
-4444444422222222-----------------l
-22222222000000004444444455555555-l
-----------------2222222233333333-l
----------------------------------l
pm................................

Course
-----------------------------------------------------l
-----------------------------------------------------l
-4-4-4-44-4-4-2-2-2-22-2-2---------------------------l
-2-2-2-22-2-2-0-0-0-00-0-0-4-4-4-44-4-4-5-5-5-55-5-5-l
---------------------------2-2-2-22-2-2-3-3-3-33-3-3-l
-----------------------------------------------------l


Intro
-------0-----------0-----------0-----------0-------------0-----------0-----------0-----------0-------l
-----4---4-------4---4-------4---4-------4---4---------4---4-------4---4-------4---4-------4---4-----l
---2-------2---2-------2---0-------0---0-------0-----0-------0---0-------0---0-------0---0-------0---l
-0-----------0-----------0-----------0-----------0-2-----------2-----------3-----------3-----------3-l
            
Submit corrections

comments powered by Disqus
↑ Back to top | Fallacy Tabs for Tip Off. Lyrics for acoustic guitar and electric guitar. Tablatures and chords are parodies/interpretations of the original songs. You may use it for private study, scholarship, research or language learning purposes only