» » »

Fallacy, The Last Death Tabs (ver.1)

Artists:  A B C D E F G H I J K L M N O P Q R S T U V W X Y Z # 

The Last Death Tabs (ver.1)

Fallacy Tabs
Rating:
0/5 (0 votes)
The Last Death lessons Tabs too difficult? Try these video lessons and learn fast
                ~Fallacy~
Last Death

Intro
---------------------------------------l
---------------------------------------l
---------------------------------------l
---------------------------------------l
---------------------------------------l
-7-7-3-3-5-555-2-2--7-7-3-3-5-555-2-0~-l

Course
-------------------
-------------------
-------------------
-7-7-3-3-5-555-2-2-
-7-7-3-3-5-555-2-2-
-7-7-3-3-5-555-2-2-

Verse
-------------------l-------------------l
-------------------l-------------------l
-----3-3-------2-2-l-------------------l
-7-7-----5-555-----l-----3-3-------2-2-l
-------------------l-7-7-----5-555-----l
-------------------l-------------------l

Course
-------------------
-------------------
-------------------
-7-7-3-3-5-555-2-2-
-7-7-3-3-5-555-2-2-
-7-7-3-3-5-555-2-2-

Verse
-------------------l-------------------l
-------------------l-------------------l
-----3-3-------2-2-l-------------------l
-7-7-----5-555-----l-----3-3-------2-2-l
-------------------l-7-7-----5-555-----l
-------------------l-------------------l

Course
-------------------
-------------------
-------------------
-7-7-3-3-5-555-2-2-
-7-7-3-3-5-555-2-2-
-7-7-3-3-5-555-2-2-

Interlude
-------------------l
-------------------l
-------------------l
-------------------l
-7-7-3-3-5-555-2-2-l
-7-7-3-3-5-555-2-2-l
pm................

Solo
-7-7-3-3-5-555-2-2-l-7-7-3-3-5-555-2-2-l-777-999-1212-333-3-3-3-555-777-1010-222-2-2-2-l
-0-0-0-0-0-000-0-0-l-7-7-3-3-5-555-2-2-l-----------------------------------------------l
-------------------l-------------------l-----------------------------------------------l
-------------------l-------------------l-----------------------------------------------l
-------------------l-------------------l-----------------------------------------------l
-------------------l-------------------l-----------------------------------------------l

-7h8h7h8h7h8h7h8-3h4h3h4h3h4h3h4-5h6h5h6h5h6h5h6-2h3h2h3h2h3h2h3-l

Interlude
-------------------l
-------------------l
-------------------l
-------------------l
-7-7-3-3-5-555-2-2-l
-7-7-3-3-5-555-2-2-l
pm................

Course
-------------------
-------------------
-------------------
-7-7-3-3-5-555-2-2-
-7-7-3-3-5-555-2-2-
-7-7-3-3-5-555-2-2-

Intro
---------------------------------------l
---------------------------------------l
---------------------------------------l
---------------------------------------l
---------------------------------------l
-7-7-3-3-5-555-2-2--7-7-3-3-5-555-2-0~-l
            

comments powered by Disqus
↑ Back to top | Fallacy Tabs for The Last Death. Lyrics for acoustic guitar and electric guitar. Tablatures and chords are parodies/interpretations of the original songs. You may use it for private study, scholarship, research or language learning purposes only