» » »

Fallacy, The Cries Of Your Soul Tabs (ver.1)

Artists:  A B C D E F G H I J K L M N O P Q R S T U V W X Y Z # 

The Cries Of Your Soul Tabs (ver.1)

Fallacy Tabs
 Rating:
4/5 (4 votes)
The Cries Of Your Soul lessons Tabs too difficult? Try these video lessons and learn fast
1
                ~Fallacy~
Cries Of Your Soul

Intro(play on bridge)
-0-----0-----------------l
---0-----0---------------l
-----0-----0-------------l
-------------0-----0-----l
---------------0-----0---l
-----------------0-----0-l

Course                                                Chords played in B.G.:A,C,G,A
-----------------------------------------------------l-0-l-0-l-3-l-0-l--------------l
-----------------------------------------------------l-2-l-1-l-0-l-2-l--------------l
-----------------------------------------------------l-2-l-0-l-0-l-2-l--------------l
-2-2-2-22-2-2-5-5-5-55-5-5---------------------------l-2-l-2-l-0-l-2-l--------------l
-0-0-0-00-0-0-3-3-3-33-3-3-5-5-5-55-5-5-7-7-7-77-7-0-l-0-l-3-l-2-l-0-l--------------l
---------------------------5-5-5-55-5-5-7-7-7-77-7-0-l-0-l-0-l-3-l-0-l--------------l

Verse
-------------------------
-------------------------
-------------------------
-------------------------
-0-0-5-3-3---------------
-----------3-5-5-9-7-7-0-

Course                                                Chords played in B.G.:A,C,G,A
-----------------------------------------------------l-0-l-0-l-3-l-0-l--------------l
-----------------------------------------------------l-2-l-1-l-0-l-2-l--------------l
-----------------------------------------------------l-2-l-0-l-0-l-2-l--------------l
-2-2-2-22-2-2-5-5-5-55-5-5---------------------------l-2-l-2-l-0-l-2-l--------------l
-0-0-0-00-0-0-3-3-3-33-3-3-5-5-5-55-5-5-7-7-7-77-7-0-l-0-l-3-l-2-l-0-l--------------l
---------------------------5-5-5-55-5-5-7-7-7-77-7-0-l-0-l-0-l-3-l-0-l--------------l

Verse
-------------------------
-------------------------
-------------------------
-------------------------
-0-0-5-3-3---------------
-----------3-5-5-9-7-7-0-

Course                                                Chords played in B.G.:A,C,G,A
-----------------------------------------------------l-0-l-0-l-3-l-0-l--------------l
-----------------------------------------------------l-2-l-1-l-0-l-2-l--------------l
-----------------------------------------------------l-2-l-0-l-0-l-2-l--------------l
-2-2-2-22-2-2-5-5-5-55-5-5---------------------------l-2-l-2-l-0-l-2-l--------------l
-0-0-0-00-0-0-3-3-3-33-3-3-5-5-5-55-5-5-7-7-7-77-7-0-l-0-l-3-l-2-l-0-l--------------l
---------------------------5-5-5-55-5-5-7-7-7-77-7-0-l-0-l-0-l-3-l-0-l--------------l

Interlude(played on bridge)
-0-----0-----------------l
---0-----0---------------l
-----0-----0-------------l
-------------0-----0-----l
---------------0-----0---l
-----------------0-----0-l

Solo
-----------------------l
-----------------------l
-/12-10-15-17----------l
--------------15-13-17-l
-----------------------l
-----------------------l

Course                                                Chords played in B.G.:A,C,G,A
-----------------------------------------------------l-0-l-0-l-3-l-0-l--------------l
-----------------------------------------------------l-2-l-1-l-0-l-2-l--------------l
-----------------------------------------------------l-2-l-0-l-0-l-2-l--------------l
-2-2-2-22-2-2-5-5-5-55-5-5---------------------------l-2-l-2-l-0-l-2-l--------------l
-0-0-0-00-0-0-3-3-3-33-3-3-5-5-5-55-5-5-7-7-7-77-7-0-l-0-l-3-l-2-l-0-l--------------l
---------------------------5-5-5-55-5-5-7-7-7-77-7-0-l-0-l-0-l-3-l-0-l--------------l

Intro(play on bridge)
-0-----0-----------------l
---0-----0---------------l
-----0-----0-------------l
-------------0-----0-----l
---------------0-----0---l
-----------------0-----0-l
            
Submit corrections

comments powered by Disqus
↑ Back to top | Fallacy Tabs for The Cries Of Your Soul. Lyrics for acoustic guitar and electric guitar. 1 Tablatures and chords are parodies/interpretations of the original songs. You may use it for private study, scholarship, research or language learning purposes only