» » »

Stigmata Tabs (ver.1)

Artists:  A B C D E F G H I J K L M N O P Q R S T U V W X Y Z # 

Stigmata Tabs (ver.1)

Fallacy
Rating:
0/5 (0 votes)

Hard to play? Try these video lessons and learn fast.
                ~Fallacy~

Intro
---------------------------------l
---------------------------------l
---------------------------------l
---------------------------------l
------------------------------XX-l
-3333-5555-000000-22-33333333-XX-l

Course
---------------------------------
---------------------------------
---------------------------------
---------------------------------
-3333-5555-000000-22-33333333-XX-
-3333-5555-000000-22-33333333-XX-

Verse
-------------------------------------------------------------l
-------------------------------------------------------------l
-------------------------------------------------------------l
------3------------5------------0--------------------3-------l
------------3------------5------------0--------------------3-l
-3333---3-3---5555---5-5---0000---0-0---0000-22-3333---3-3---l

Course
---------------------------------
---------------------------------
---------------------------------
---------------------------------
-3333-5555-000000-22-33333333-XX-
-3333-5555-000000-22-33333333-XX-

Verse
-------------------------------------------------------------l
-------------------------------------------------------------l
-------------------------------------------------------------l
------3------------5------------0--------------------3-------l
------------3------------5------------0--------------------3-l
-3333---3-3---5555---5-5---0000---0-0---0000-22-3333---3-3---l

Course
---------------------------------
---------------------------------
---------------------------------
---------------------------------
-3333-5555-000000-22-33333333-XX-
-3333-5555-000000-22-33333333-XX-

Interlude
----------------------------l
----------------------------l
----------------------------l
-9-9-9--7-7-7--4-4-4--------l
-7-7-7--5-5-5--2-2-2--4-4-4-l
----------------------4-4-4-l

Solo
-/17-17-17-15-15-15-12-12-12----------17-/19-17-15-/17-15-12-/14-12-----------------l
-----------------------------12-12-12-------------------------------12-12-12-14-12~-l

Interlude
----------------------------l
----------------------------l
----------------------------l
-9-9-9--7-7-7--4-4-4--------l
-7-7-7--5-5-5--2-2-2--4-4-4-l
----------------------4-4-4-l

Course
---------------------------------
---------------------------------
---------------------------------
---------------------------------
-3333-5555-000000-22-33333333-XX-
-3333-5555-000000-22-33333333-XX-

Intro
---------------------------------l
---------------------------------l
---------------------------------l
---------------------------------l
------------------------------XX-l
-3333-5555-000000-22-33333333-XX-l
            
Hard to play? Try these video lessons and learn fast. | Correct




comments powered by Disqus
↑ Back to top | Tablatures and chords are parodies/interpretations of the original songs. You may use it for private study, scholarship, research or language learning purposes only