» » »

Fallacy, Spell Correctly Tabs (ver.1)

Artists:  A B C D E F G H I J K L M N O P Q R S T U V W X Y Z # 

Spell Correctly Tabs (ver.1)

Fallacy Tabs
Rating:
0/5 (0 votes)
Spell Correctly lessons Tabs too difficult? Try these video lessons and learn fast
                ~Fallacy~
3-Diminsional Paper

Intro
---------3-----------2-----------5h6h5-----------0---l
-------------------------------------------------0---l
-----------------------------------------------------l
-------3-----------2-----------5---------------0-----l
---5-3---------4-2---------7-5-------------2-0-------l
-3---------3-2---------2/5-------------5-0---------0-l

Verse
---------3-----------2-----------5h6h5-7-5-----------0---l
-----------------------------------------------------0---l
---------------------------------------------------------l
-------3-----------2-----------5-------------------0-----l
---5-3---------4-2---------7-5-----------------2-0-------l
-3---------3-2---------2/5-----------------5-0---------0-l

Course
-----------------------------------------------------
-----------------------------------------------------
-----------------------------------------------------
-----------------------------------------------------
-3-3-3-33-3-3-2-2-2-22-2-2-5-5-5-55-5-5-0-0-0-00-0-0-
-3-3-3-33-3-3-2-2-2-22-2-2-5-5-5-55-5-5-0-0-0-00-0-0-

Intro
---------3-----------2-----------5h6h5-----------0---l
-------------------------------------------------0---l
-----------------------------------------------------l
-------3-----------2-----------5---------------0-----l
---5-3---------4-2---------7-5-------------2-0-------l
-3---------3-2---------2/5-------------5-0---------0-l

Verse
---------3-----------2-----------5h6h5-7-5----------0---l
----------------------------------------------------0---l
--------------------------------------------------------l
-------3-----------2-----------5------------------0-----l
---5-3---------4-2---------7-5----------------2-0-------l
-3---------3-2---------2/5----------------5-0---------0-l

Course
-----------------------------------------------------
-----------------------------------------------------
-----------------------------------------------------
-----------------------------------------------------
-3-3-3-33-3-3-2-2-2-22-2-2-5-5-5-55-5-5-0-0-0-00-0-0-
-3-3-3-33-3-3-2-2-2-22-2-2-5-5-5-55-5-5-0-0-0-00-0-0-

Interlude
------------------------------------------------------------l
------------------------------------------------------------l
------------------------------------------------------------l
------------------------------------------------------------l
------------------------------------------------------------l
-/3-5-7-2-2-2-5-7-9-0-0-0-3-5-7-2-2-2-5-5-5-7-7-7-9-9-0-0-0-l

Course
-----------------------------------------------------
-----------------------------------------------------
-----------------------------------------------------
-----------------------------------------------------
-3-3-3-33-3-3-2-2-2-22-2-2-5-5-5-55-5-5-0-0-0-00-0-0-
-3-3-3-33-3-3-2-2-2-22-2-2-5-5-5-55-5-5-0-0-0-00-0-0-

Solo
-/3-/5-/7-\2-2-2-/5-/7-/9^\0-0-0-/-3^-5^-2-0-5^-7^\-0-12-12-l
------------------------------------------------------------l
------------------------------------------------------------l
------------------------------------------------------------l
------------------------------------------------------------l
------------------------------------------------------------l

Course
-----------------------------------------------------
-----------------------------------------------------
-----------------------------------------------------
-----------------------------------------------------
-3-3-3-33-3-3-2-2-2-22-2-2-5-5-5-55-5-5-0-0-0-00-0-0-
-3-3-3-33-3-3-2-2-2-22-2-2-5-5-5-55-5-5-0-0-0-00-0-0-

Intro
---------3-----------2-----------5h6h5-----------0---l
-------------------------------------------------0---l
-----------------------------------------------------l
-------3-----------2-----------5---------------0-----l
---5-3---------4-2---------7-5-------------2-0-------l
-3---------3-2---------2/5-------------5-0---------0-l
            
Submit corrections

comments powered by Disqus
↑ Back to top | Fallacy Tabs for Spell Correctly. Lyrics for acoustic guitar and electric guitar. Tablatures and chords are parodies/interpretations of the original songs. You may use it for private study, scholarship, research or language learning purposes only