» » »

Space Between A Blink And A Tear Tabs (ver.1)

Artists:  A B C D E F G H I J K L M N O P Q R S T U V W X Y Z # 

Space Between A Blink And A Tear Tabs (ver.1)

Fallacy
Rating:
0/5 (0 votes)

Tabs too difficult? Try these video lessons and learn fast.
                ~Fallacy~

Intro
-111-1-1-1-11-1-4--000-0-0-0-00-3-0-l
-111-1-1-1-11-1-4--000-0-0-0-00-3-0-l
------------------------------------l
------------------------------------l
------------------------------------l
------------------------------------l

Bridge
--------5--------5----5--------4--------4----4--------5--------5-/9-8--------4----4---4---4~-l
------5--------5-------------4--------4-------------5--------5-------------4-----------------l
-00-3-----00-3-----00---00-2-----00-2-----00---00-3-----00-3----------00-2-----00---0---0----l
-00-------00-------00---00-------00-------00---00-------00------------00-------00---0---0----l
pm.       ..       ..   ..       ..       ..   ..       ..            ..       ..   .   .

Verse
-111-1-1-1-11-1-4--000-0-0-0-00-3-0-l------------------------------------l
-111-1-1-1-11-1-4--000-0-0-0-00-3-0-l------------------------------------l
------------------------------------l------------------------------------l
------------------------------------l------------------------------------l
------------------------------------l-111-1-1-1-11-1-4--000-0-0-0-00-3-0-l
------------------------------------l-111-1-1-1-11-1-4--000-0-0-0-00-3-0-l
pm                                    ...................................

Course
----------------------------------------------------
----------------------------------------------------
----------------------------------------------------
----------------------------------------------------
-1-1-1-11-1-4-0-0-0-00-0-0-1-1-1-11-9-8-0-0-0-00-0~-
-1-1-1-11-1-4-0-0-0-00-0-0-1-1-1-11-9-8-0-0-0-00-0~-

Bridge
--------5--------5----5--------4--------4----4--------5--------5-/9-8--------4----4---4---4~-l
------5--------5-------------4--------4-------------5--------5-------------4-----------------l
-00-3-----00-3-----00---00-2-----00-2-----00---00-3-----00-3----------00-2-----00---0---0----l
-00-------00-------00---00-------00-------00---00-------00------------00-------00---0---0----l
pm.       ..       ..   ..       ..       ..   ..       ..            ..       ..   .   .

Verse
-111-1-1-1-11-1-4--000-0-0-0-00-3-0-l------------------------------------l
-111-1-1-1-11-1-4--000-0-0-0-00-3-0-l------------------------------------l
------------------------------------l------------------------------------l
------------------------------------l------------------------------------l
------------------------------------l-111-1-1-1-11-1-4--000-0-0-0-00-3-0-l
------------------------------------l-111-1-1-1-11-1-4--000-0-0-0-00-3-0-l
pm                                    ...................................

Course
----------------------------------------------------
----------------------------------------------------
----------------------------------------------------
----------------------------------------------------
-1-1-1-11-1-4-0-0-0-00-0-0-1-1-1-11-9-8-0-0-0-00-0~-
-1-1-1-11-1-4-0-0-0-00-0-0-1-1-1-11-9-8-0-0-0-00-0~-

Bridge
--------5--------5----5--------4--------4----4--------5--------5-/9-8--------4----4---4---4~-l
------5--------5-------------4--------4-------------5--------5-------------4-----------------l
-00-3-----00-3-----00---00-2-----00-2-----00---00-3-----00-3----------00-2-----00---0---0----l
-00-------00-------00---00-------00-------00---00-------00------------00-------00---0---0----l
pm.       ..       ..   ..       ..       ..   ..       ..            ..       ..   .   .

Interlude
-----15----15----15----15----14----14----14----14----17----17----17----17----19----19----19----10-l
-/15----15----15----15----14----14----14----14----17----17----17----17----19----19----19----19----l

Solo
----13----13----13----13----13----13----13----16----12----12----12----12----12----12----15----12----l
-13----13----13----13----13----13----13----16----12----12----12----12----12----12----15----12-------l

Course
----------------------------------------------------
----------------------------------------------------
----------------------------------------------------
----------------------------------------------------
-1-1-1-11-1-4-0-0-0-00-0-0-1-1-1-11-9-8-0-0-0-00-0~-
-1-1-1-11-1-4-0-0-0-00-0-0-1-1-1-11-9-8-0-0-0-00-0~-

Bridge
--------5--------5----5--------4--------4----4--------5--------5-/9-8--------4----4---4---4~-l
------5--------5-------------4--------4-------------5--------5-------------4-----------------l
-00-3-----00-3-----00---00-2-----00-2-----00---00-3-----00-3----------00-2-----00---0---0----l
-00-------00-------00---00-------00-------00---00-------00------------00-------00---0---0----l
pm.       ..       ..   ..       ..       ..   ..       ..            ..       ..   .   .

Intro
-111-1-1-1-11-1-4--000-0-0-0-00-3-0-l
-111-1-1-1-11-1-4--000-0-0-0-00-3-0-l
------------------------------------l
------------------------------------l
------------------------------------l
------------------------------------l
            
Tabs too difficult? Try these video lessons and learn fast.


comments powered by Disqus
↑ Back to top | Tablatures and chords are parodies/interpretations of the original songs. You may use it for private study, scholarship, research or language learning purposes only