» » »

Smell Of Death Tabs (ver.1)

Artists:  A B C D E F G H I J K L M N O P Q R S T U V W X Y Z # 

Smell Of Death Tabs (ver.1)

Fallacy
Rating:
0/5 (0 votes)

Hard to play? Try these video lessons and learn fast.
                ~Fallacy~

Intro
-21-21-19-17-1717-19-17-1515-17-15-12-12-1212-12-1212-l
------------------------------------------------------l
------------------------------------------------------l
------------------------------------------------------l
------------------------------------------------------l
------------------------------------------------------l

Course
---------------------------------------
---------------------------------------
---------------------------------------
---------------------------------------
-9-9-7-5-55-7-5-33-5-3-0-0-00-0-00-0==-
-9-9-7-5-55-7-5-33-5-3-0-0-00-0-00-0==-

Verse
------------------------------------------------------
------------------------------------------------------
------------------------------------------------------
------------------------------------------------------
-9*9*9*9*9=-9*9=-7*7*7*7=-5*5*5*5\3-0-0*0*-0-0-0*0*-0-
-9*9*9*9*9=-9*9=-7*7*7*7=-5*5*5*5\3-0-0*0*-0-0-0*0*-0-

Course
---------------------------------------
---------------------------------------
---------------------------------------
---------------------------------------
-9-9-7-5-55-7-5-33-5-3-0-0-00-0-00-0==-
-9-9-7-5-55-7-5-33-5-3-0-0-00-0-00-0==-

Verse
------------------------------------------------------
------------------------------------------------------
------------------------------------------------------
------------------------------------------------------
-9*9*9*9*9=-9*9=-7*7*7*7=-5*5*5*5\3-0-0*0*-0-0-0*0*-0-
-9*9*9*9*9=-9*9=-7*7*7*7=-5*5*5*5\3-0-0*0*-0-0-0*0*-0-

Course
---------------------------------------
---------------------------------------
---------------------------------------
---------------------------------------
-9-9-7-5-55-7-5-33-5-3-0-0-00-0-00-0==-
-9-9-7-5-55-7-5-33-5-3-0-0-00-0-00-0==-

Interlude
-21-21-19-17-1717-19-17-1515-17-15-12-12-1212-12-1212-
------------------------------------------------------
------------------------------------------------------
------------------------------------------------------
------------------------------------------------------
------------------------------------------------------

Solo
-21-24-21-21-24-19-21-17-17-19-17-12===-21-24-21-21-24-------17-19-12===-
-------------------------------------------------------19-21-------------

Verse
------------------------------------------------------
------------------------------------------------------
------------------------------------------------------
------------------------------------------------------
-9*9*9*9*9=-9*9=-7*7*7*7=-5*5*5*5\3-0-0*0*-0-0-0*0*-0-
-9*9*9*9*9=-9*9=-7*7*7*7=-5*5*5*5\3-0-0*0*-0-0-0*0*-0-

Course
---------------------------------------l
---------------------------------------l
---------------------------------------l
---------------------------------------l
-9-9-7-5-55-7-5-33-5-3-0-0-00-0-00-0==-l
-9-9-7-5-55-7-5-33-5-3-0-0-00-0-00-0==-l
            
Hard to play? Try these video lessons and learn fast. | Correct




comments powered by Disqus
↑ Back to top | Tablatures and chords are parodies/interpretations of the original songs. You may use it for private study, scholarship, research or language learning purposes only