» » »

Reset Button To Life Tabs (ver.1)

Artists:  A B C D E F G H I J K L M N O P Q R S T U V W X Y Z # 

Reset Button To Life Tabs (ver.1)

Fallacy
Rating:
0/5 (0 votes)

Hard to play? Try these video lessons and learn fast.
                ~Fallacy~

Chords Used:Em,P.C.2,A,D

Intro
Em:P.C.2 A: Em:
-0-l---l-0-l-0-l
-0-l---l-2-l-0-l
-1-l---l-2-l-1-l
-2-l-4-l-2-l-2-l
-2-l-2-l-0-l-2-l
-0-l---l-0-l-0-l

Verse
Em:P.C.2 A: Em:
-0-l---l-0-l-0-l
-0-l---l-2-l-0-l
-1-l---l-2-l-1-l
-2-l-4-l-2-l-2-l
-2-l-2-l-0-l-2-l
-0-l---l-0-l-0-l

Course
D:  A:  Em:
-2-l-0-l-0-l
-3-l-2-l-0-l
-2-l-2-l-1-l
-0-l-2-l-2-l
-0-l-0-l-2-l
-0-l-0-l-0-l

Verse
Em:P.C.2 A: Em:
-0-l---l-0-l-0-l
-0-l---l-2-l-0-l
-1-l---l-2-l-1-l
-2-l-4-l-2-l-2-l
-2-l-2-l-0-l-2-l
-0-l---l-0-l-0-l

Course
D:  A:  Em:
-2-l-0-l-0-l
-3-l-2-l-0-l
-2-l-2-l-1-l
-0-l-2-l-2-l
-0-l-0-l-2-l
-0-l-0-l-0-l

Interlude
-----------------------------------------------------l
-----------------------------------------------------l
-----------------------------------------------------l
--------------4-4-4-44-4-4-2-2-2-22-2-2--------------l
-2-2-2-22-2-2-2-2-2-22-2-2-0-0-0-00-0-0-2-2-2-22-2-2-l
-0-0-0-00-0-0---------------------------0-0-0-00-0-0-l

Solo
-----------------------------l
-----------------------------l
---------14-16-12-14---------l
-7/12-14-------------12-7-12-l
-----------------------------l
-----------------------------l

Course
D:  A:  Em:
-2-l-0-l-0-l
-3-l-2-l-0-l
-2-l-2-l-1-l
-0-l-2-l-2-l
-0-l-0-l-2-l
-0-l-0-l-0-l

Verse
Em:P.C.2 A: Em:
-0-l---l-0-l-0-l
-0-l---l-2-l-0-l
-1-l---l-2-l-1-l
-2-l-4-l-2-l-2-l
-2-l-2-l-0-l-2-l
-0-l---l-0-l-0-l
            
Hard to play? Try these video lessons and learn fast. | Correct




comments powered by Disqus
↑ Back to top | Tablatures and chords are parodies/interpretations of the original songs. You may use it for private study, scholarship, research or language learning purposes only