» » »

Pentacle-Visions Tabs (ver.1)

Artists:  A B C D E F G H I J K L M N O P Q R S T U V W X Y Z # 

Pentacle-Visions Tabs (ver.1)

Fallacy
Rating:
0/5 (0 votes)

Hard to play? Try these video lessons and learn fast.
                ~Fallacy~

Intro
-------------------------------------------------------l
-------------------------------------------------------l
-------------------------------------------------------l
-XX12-12-12-1212-12-7-7-7-77-7-101010101010-5-5-5-55-5-l
-XX10-10-10-1010-10-5-5-5-55-5-8-8-8-8^-8-8-3-3-3-33-3-l
-------------------------------------------------------l

Course
---------------------------------------------------
---------------------------------------------------
---------------------------------------------------
---------------------------------------------------
-10-10-10-1010-10-5-5-5-55-5-8-8-8-88-8-3-3-3-33-3-
-10-10-10-1010-10-5-5-5-55-5-8-8-8-88-8-3-3-3-33-3-

Verse
-10-XXXX10-XX-10-10-5-XXXX5-XX-5-5-8-XXXX8-XX-8-8-3-XXXX3-XX-3-3-l
-10-XXXX10-XX-10-10-5-XXXX5-XX-5-5-8-XXXX8-XX-8-8-3-XXXX3-XX-3-3-l
-10-XXXX10-XX-10-10-5-XXXX5-XX-5-5-8-XXXX8-xx-8-8-3-XXXX3-XX-3-3-l
-10-XXXX10-XX-10-10-5-XXXX5-XX-5-5-8-XXXX8-XX-8-8-3-XXXX3-XX-3-3-l

Course
---------------------------------------------------
---------------------------------------------------
---------------------------------------------------
---------------------------------------------------
-10-10-10-1010-10-5-5-5-55-5-8-8-8-88-8-3-3-3-33-3-
-10-10-10-1010-10-5-5-5-55-5-8-8-8-88-8-3-3-3-33-3-

Verse
-10-XXXX10-XX-10-10-5-XXXX5-XX-5-5-8-XXXX8-XX-8-8-3-XXXX3-XX-3-3-l
-10-XXXX10-XX-10-10-5-XXXX5-XX-5-5-8-XXXX8-XX-8-8-3-XXXX3-XX-3-3-l
-10-XXXX10-XX-10-10-5-XXXX5-XX-5-5-8-XXXX8-xx-8-8-3-XXXX3-XX-3-3-l
-10-XXXX10-XX-10-10-5-XXXX5-XX-5-5-8-XXXX8-XX-8-8-3-XXXX3-XX-3-3-l

Course
---------------------------------------------------
---------------------------------------------------
---------------------------------------------------
---------------------------------------------------
-10-10-10-1010-10-5-5-5-55-5-8-8-8-88-8-3-3-3-33-3-
-10-10-10-1010-10-5-5-5-55-5-8-8-8-88-8-3-3-3-33-3-

Interlude
-10-XXXX10-XX-10-10-5-XXXX5-XX-5-5-8-XXXX8-XX-8-8-3-XXXX3-XX-3-3-
-10-XXXX10-XX-10-10-5-XXXX5-XX-5-5-8-XXXX8-XX-8-8-3-XXXX3-XX-3-3-
-10-XXXX10-XX-10-10-5-XXXX5-XX-5-5-8-XXXX8-xx-8-8-3-XXXX3-XX-3-3-
-10-XXXX10-XX-10-10-5-XXXX5-XX-5-5-8-XXXX8-XX-8-8-3-XXXX3-XX-3-3-

------------------------------------------------------l
------------------------------------------------------l
------------------------------------------------------l
------------------------------------------------------l
-10-10-10-1010-XX-5-5-5-55-XX-8-8-8-88-XX-3-3-3-33-XX-l
-10-10-10-1010-XX-5-5-5-55-XX-8-8-8-88-XX-3-3-3-33-XX-l

Solo
-10101010101010101010101010101010-5555555555555555-88888888888888888-3333333333333333-l
-10101010101010101010101010101010-5555555555555555-88888888888888888-3333333333333333-l
-10101010101010101010101010101010-5555555555555555-88888888888888888-3333333333333333-l
-10101010101010101010101010101010-5555555555555555-88888888888888888-3333333333333333-l

Course
---------------------------------------------------
---------------------------------------------------
---------------------------------------------------
---------------------------------------------------
-10-10-10-1010-10-5-5-5-55-5-8-8-8-88-8-3-3-3-33-3-
-10-10-10-1010-10-5-5-5-55-5-8-8-8-88-8-3-3-3-33-3-

Intro
-------------------------------------------------------l
-------------------------------------------------------l
-------------------------------------------------------l
-XX12-12-12-1212-12-7-7-7-77-7-101010101010-5-5-5-55-5-l
-XX10-10-10-1010-10-5-5-5-55-5-8-8-8-8^-8-8-3-3-3-33-3-l
-------------------------------------------------------l
            
Hard to play? Try these video lessons and learn fast. | Correct




comments powered by Disqus
↑ Back to top | Tablatures and chords are parodies/interpretations of the original songs. You may use it for private study, scholarship, research or language learning purposes only