» » »

Lethal Injection Tabs (ver.1)

Artists:  A B C D E F G H I J K L M N O P Q R S T U V W X Y Z # 

Lethal Injection Tabs (ver.1)

Fallacy
Rating:
0/5 (0 votes)

Tabs too difficult? Try these video lessons and learn fast.
                ~Fallacy~

Intro
---------------------------------------------l
---------------------------------------------l
---------------------------------------------l
---------------------------------------------l
------------3-3-3-33-3-----------------------l
-1-1-1-11-1------------6-6-6-66-6-8-8-8-88-8-l

Course
-----------------------------------------------------l
-----------------------------------------------------l
-----------------------------------------------------l
-1-1-1-11-1-1-5-5-5-55-5-5-6-6-6-66-6-6-8-8-8-88-8-8-l
-1-1-1-11-1-1-3-3-3-33-3-3-6-6-6-66-6-6-8-8-8-88-8-8-l
-1-1-1-11-1-1--------------6-6-6-66-6-6-8-8-8-88-8-8-l

Verse
------1------------1------------5-----5------5-----5-----------------------------------------------------
------------1------------1-3333---3-3---3333---3-3--------6-----6------6-----6------8-----8------8-----8-
-1111---1-1---1111---1-1-----------------------------6666---6-6---6666---6-6---8888---8-8---8888---8-8---

Course
-----------------------------------------------------l
-----------------------------------------------------l
-----------------------------------------------------l
-1-1-1-11-1-1-5-5-5-55-5-5-6-6-6-66-6-6-8-8-8-88-8-8-l
-1-1-1-11-1-1-3-3-3-33-3-3-6-6-6-66-6-6-8-8-8-88-8-8-l
-1-1-1-11-1-1--------------6-6-6-66-6-6-8-8-8-88-8-8-l

Verse
------1------------1------------5-----5------5-----5-----------------------------------------------------
------------1------------1-3333---3-3---3333---3-3--------6-----6------6-----6------8-----8------8-----8-
-1111---1-1---1111---1-1-----------------------------6666---6-6---6666---6-6---8888---8-8---8888---8-8---

Course
-----------------------------------------------------l
-----------------------------------------------------l
-----------------------------------------------------l
-1-1-1-11-1-1-5-5-5-55-5-5-6-6-6-66-6-6-8-8-8-88-8-8-l
-1-1-1-11-1-1-3-3-3-33-3-3-6-6-6-66-6-6-8-8-8-88-8-8-l
-1-1-1-11-1-1--------------6-6-6-66-6-6-8-8-8-88-8-8-l
Verse
------1------------1------------5-----5------5-----5-----------------------------------------------------
------------1------------1-3333---3-3---3333---3-3--------6-----6------6-----6------8-----8------8-----8-
-1111---1-1---1111---1-1-----------------------------6666---6-6---6666---6-6---8888---8-8---8888---8-8---

Course
-----------------------------------------------------l
-----------------------------------------------------l
-----------------------------------------------------l
-1-1-1-11-1-1-5-5-5-55-5-5-6-6-6-66-6-6-8-8-8-88-8-8-l
-1-1-1-11-1-1-3-3-3-33-3-3-6-6-6-66-6-6-8-8-8-88-8-8-l
-1-1-1-11-1-1--------------6-6-6-66-6-6-8-8-8-88-8-8-l

Intro
---------------------------------------------l
---------------------------------------------l
---------------------------------------------l
---------------------------------------------l
------------3-3-3-33-3-----------------------l
-1-1-1-11-1------------6-6-6-66-6-8-8-8-88-8-l

Course
-----------------------------------------------------l
-----------------------------------------------------l
-----------------------------------------------------l
-1-1-1-11-1-1-5-5-5-55-5-5-6-6-6-66-6-6-8-8-8-88-8-8-l
-1-1-1-11-1-1-3-3-3-33-3-3-6-6-6-66-6-6-8-8-8-88-8-8-l
-1-1-1-11-1-1--------------6-6-6-66-6-6-8-8-8-88-8-8-l

Verse
------1------------1------------5-----5------5-----5-----------------------------------------------------
------------1------------1-3333---3-3---3333---3-3--------6-----6------6-----6------8-----8------8-----8-
-1111---1-1---1111---1-1-----------------------------6666---6-6---6666---6-6---8888---8-8---8888---8-8---
            
Tabs too difficult? Try these video lessons and learn fast.




comments powered by Disqus
↑ Back to top | Tablatures and chords are parodies/interpretations of the original songs. You may use it for private study, scholarship, research or language learning purposes only