» » »

Jabberwocky Tabs (ver.1)

Artists:  A B C D E F G H I J K L M N O P Q R S T U V W X Y Z # 

Jabberwocky Tabs (ver.1)

Fallacy
Rating:
0/5 (0 votes)

Hard to play? Try these video lessons and learn fast.
                ~Fallacy~

Intro
-0-0-0-0-4-4-5-5-0-0-0-0-3-2-0-0-0-0-0-0-4-4-5-5-0-0-0-0-3-0-3-0-l

Course
----------------------------------------
----------------------------------------
----------------------------------------
----------------------------------------
-0-0-4-5-0-0-3-2-0--0-0-4-5-0-0-3-2-3-2-
-0-0-4-5-0-0-3-2-0--0-0-4-5-0-0-3-2-3-2-

Verse
-------------------------------------------------
-------------------------------------------------
-------------------------------------------------
-----2-----6-----7-----2-----6-----7-----5-----4-
---2-----6-----7-----2-----6-----7-----5-----4---
-0-----4-----5-----0-----4-----5-----3-----2-----

Course
----------------------------------------
----------------------------------------
----------------------------------------
----------------------------------------
-0-0-4-5-0-0-3-2-0--0-0-4-5-0-0-3-2-3-2-
-0-0-4-5-0-0-3-2-0--0-0-4-5-0-0-3-2-3-2-

Verse
-------------------------------------------------
-------------------------------------------------
-------------------------------------------------
-----2-----6-----7-----2-----6-----7-----5-----4-
---2-----6-----7-----2-----6-----7-----5-----4---
-0-----4-----5-----0-----4-----5-----3-----2-----

Course
----------------------------------------
----------------------------------------
----------------------------------------
----------------------------------------
-0-0-4-5-0-0-3-2-0--0-0-4-5-0-0-3-2-3-2-
-0-0-4-5-0-0-3-2-0--0-0-4-5-0-0-3-2-3-2-

Interlude
------------------------------------------------------l
------------------------------------------------------l
------------------------------------------------------l
------------------------------------------------------l
-0-0-0-0-0--0-0-0-0-3-2-0--0-0-0-0-0--0-0-0-0-3-2-3-2-l
-0-0-0-0-0--0-0-0-0-3-2-0--0-0-0-0-0--0-0-0-0-3-2-3-2-l
pm......    .......        .......    ...............

Solo
-/10-12-13-8-/13-12-/10-12-13-\8-/13-12-\10~-10-8~-8-10~-10-8~-l

Bridge
-0-0-0-0-4-4-5-5-0-0-0-0-3-2-0-0-0-0-0-0-4-4-5-5-0-0-0-0-3-2-3-2-l
-0-0-0-0-4-4-5-5-0-0-0-0-3-2-0-0-0-0-0-0-4-4-5-5-0-0-0-0-3-2-3-2-l
pm..............................................................

Course
----------------------------------------
----------------------------------------
----------------------------------------
----------------------------------------
-0-0-4-5-0-0-3-2-0--0-0-4-5-0-0-3-2-3-2-
-0-0-4-5-0-0-3-2-0--0-0-4-5-0-0-3-2-3-2-

Solo
-/10-12-13-8-/13-12-/10-12-13-\8-/13-12-\10~-10-8~-8-10~-10-8~-l

Intro
-0-0-0-0-4-4-5-5-0-0-0-0-3-2-0-0-0-0-0-0-4-4-5-5-0-0-0-0-3-0-3-0-l
            
Hard to play? Try these video lessons and learn fast. | Correct




comments powered by Disqus
↑ Back to top | Tablatures and chords are parodies/interpretations of the original songs. You may use it for private study, scholarship, research or language learning purposes only