» » »

Fallacy, Half Way Close To Nothing Tabs (ver.1)

Artists:  A B C D E F G H I J K L M N O P Q R S T U V W X Y Z # 

Half Way Close To Nothing Tabs (ver.1)

Fallacy Tabs
 Rating:
4/5 (4 votes)
Half Way Close To Nothing lessons Tabs too difficult? Try these video lessons and learn fast
                ~Fallacy~

Intro
------------------------------------------------------------l
------------------------------------------------------------l
------------------------------------------------------------l
-10----10----10---9----9----9---7----9----7---5----5----5---l
----00----00----0---00---00---0---00---00---0---00---00---0-l
------------------------------------------------------------l
pm  ..    ..    .   ..   ..   .   ..   ..   .   ..   ..   .

Verse
------------------------------------------------------------l
------------------------------------------------------------l
------------------------------------------------------------l
-10----10----10---9----9----9---7----9----7---5----5----5---l
----00----00----0---00---00---0---00---00---0---00---00---0-l
------------------------------------------------------------l
pm  ..    ..    .   ..   ..   .   ..   ..   .   ..   ..   .

Course
---------------------9-9-9-7-7-5-5---------------------------------
-10-10--10-10--10-10---------------10-10--10-10--10-10-0-0-0-17-16-
-10-10--10-10--10-10---------------10-10--10-10--10-10-0-0-0-17-16-
pm                                                     .....

-------------------------------------------------l
-------------------------------------------------l
-------------------------------------------------l
-------------------------------------------------l
-0-0-0-00-0-0-0-0-00-0-0-15-15-15-15-14-14-14-14-l
-0-0-0-00-0-0-0-0-00-0-0-15-15-15-15-14-14-14-14-l

Verse
------------------------------------------------------------l
------------------------------------------------------------l
------------------------------------------------------------l
-10----10----10---9----9----9---7----9----7---5----5----5---l
----00----00----0---00---00---0---00---00---0---00---00---0-l
------------------------------------------------------------l
pm  ..    ..    .   ..   ..   .   ..   ..   .   ..   ..   .

Course
---------------------9-9-9-7-7-5-5---------------------------------
-10-10--10-10--10-10---------------10-10--10-10--10-10-0-0-0-17-16-
-10-10--10-10--10-10---------------10-10--10-10--10-10-0-0-0-17-16-
pm                                                     .....

-------------------------------------------------l
-------------------------------------------------l
-------------------------------------------------l
-------------------------------------------------l
-0-0-0-00-0-0-0-0-00-0-0-15-15-15-15-14-14-14-14-l
-0-0-0-00-0-0-0-0-00-0-0-15-15-15-15-14-14-14-14-l

Verse
------------------------------------------------------------l
------------------------------------------------------------l
------------------------------------------------------------l
-10----10----10---9----9----9---7----9----7---5----5----5---l
----00----00----0---00---00---0---00---00---0---00---00---0-l
------------------------------------------------------------l
pm  ..    ..    .   ..   ..   .   ..   ..   .   ..   ..   .

Course
---------------------9-9-9-7-7-5-5---------------------------------
-10-10--10-10--10-10---------------10-10--10-10--10-10-0-0-0-17-16-
-10-10--10-10--10-10---------------10-10--10-10--10-10-0-0-0-17-16-
pm                                                     .....

-------------------------------------------------l
-------------------------------------------------l
-------------------------------------------------l
-------------------------------------------------l
-0-0-0-00-0-0-0-0-00-0-0-15-15-15-15-14-14-14-14-l
-0-0-0-00-0-0-0-0-00-0-0-15-15-15-15-14-14-14-14-l

Interlude
---------------------9-9-9-7-7-5-5---------------------5-5-5-7-7-9-9-
-10-10--10-10--10-10---------------10-10--10-10--10-10---------------
-10-10--10-10--10-10---------------10-10--10-10--10-10---------------

---------------------9-9-9-7-7-5-5-----------------------------------l
-------------------------------------------------------5-5-5-7-7-9-9-l
-10-10--10-10--10-10---------------10-10--10-10--10-10---------------l
-10-10--10-10--10-10---------------10-10--10-10--10-10---------------l

Course
---------------------9-9-9-7-7-5-5---------------------------------
-10-10--10-10--10-10---------------10-10--10-10--10-10-0-0-0-17-16-
-10-10--10-10--10-10---------------10-10--10-10--10-10-0-0-0-17-16-
pm                                                     .....

-------------------------------------------------l
-------------------------------------------------l
-------------------------------------------------l
-------------------------------------------------l
-0-0-0-00-0-0-0-0-00-0-0-15-15-15-15-14-14-14-14-l
-0-0-0-00-0-0-0-0-00-0-0-15-15-15-15-14-14-14-14-l

Solo
-9-7-5--5-7-9--9-7-5--5-7-9^-10-10/-17-16-10-10-15-14-10-10-9-7-5--5-7-9^-

-----------------------------------------------l
-----------------------------------------------l
-10-10-/17-16-10-10-15-14-10-10-9-9-9-7-7-7-5~-l
-----------------------------------------------l
-----------------------------------------------l
-----------------------------------------------l

Course
---------------------9-9-9-7-7-5-5---------------------------------
-10-10--10-10--10-10---------------10-10--10-10--10-10-0-0-0-17-16-
-10-10--10-10--10-10---------------10-10--10-10--10-10-0-0-0-17-16-
pm                                                     .....

-------------------------------------------------l
-------------------------------------------------l
-------------------------------------------------l
-------------------------------------------------l
-0-0-0-00-0-0-0-0-00-0-0-15-15-15-15-14-14-14-14-l
-0-0-0-00-0-0-0-0-00-0-0-15-15-15-15-14-14-14-14-l

Verse
------------------------------------------------------------l
------------------------------------------------------------l
------------------------------------------------------------l
-10----10----10---9----9----9---7----9----7---5----5----5---l
----00----00----0---00---00---0---00---00---0---00---00---0-l
------------------------------------------------------------l
pm  ..    ..    .   ..   ..   .   ..   ..   .   ..   ..   .
            
Submit corrections

comments powered by Disqus
↑ Back to top | Fallacy Tabs for Half Way Close To Nothing. Lyrics for acoustic guitar and electric guitar. Tablatures and chords are parodies/interpretations of the original songs. You may use it for private study, scholarship, research or language learning purposes only