» » »

Fallacy, Fallen Angel Tabs (ver.1)

Artists:  A B C D E F G H I J K L M N O P Q R S T U V W X Y Z # 

Fallen Angel Tabs (ver.1)

Fallacy Tabs
Rating:
0/5 (0 votes)
Fallen Angel lessons Tabs too difficult? Try these video lessons and learn fast
                ~Fallacy~

Intro
-/3-/5-\-0~-l
------------l
------------l
------------l
------------l
------------l

Course
-----------------------------
-----------------------------
-----------------------------
-----------------------------
-3-3-33-5-5-55-0-0-00-0-0-00-
-3-3-33-5-5-55-0-0-00-0-0-00-

Verse
----3----5----0----0-l
---------------------l
---------------------l
---------------------l
-33---55---00---00---l
-33---55---00---00---l
pm.   ..   ..   ..

Course
-----------------------------
-----------------------------
-----------------------------
-----------------------------
-3-3-33-5-5-55-0-0-00-0-0-00-
-3-3-33-5-5-55-0-0-00-0-0-00-

Verse
----3----5----0----0-l
---------------------l
---------------------l
---------------------l
-33---55---00---00---l
-33---55---00---00---l
pm.   ..   ..   ..

Course
-----------------------------
-----------------------------
-----------------------------
-----------------------------
-3-3-33-5-5-55-0-0-00-0-0-00-
-3-3-33-5-5-55-0-0-00-0-0-00-

Intro
-/3-/5-\-0~-l
------------l
------------l
------------l
------------l
------------l

Course
-----------------------------
-----------------------------
-----------------------------
-----------------------------
-3-3-33-5-5-55-0-0-00-0-0-00-
-3-3-33-5-5-55-0-0-00-0-0-00-

Solo
-------------------------------------------------l
-------------------------------------------------l
---------5---------------7---------------2-------l
-----5-----5---5-----7-----7---7-----2-----2---2-l
---3---3-----3-----5---5-----5-----0---2-----0---l
-3---------------5---------------0---------------l

Intro
-/3-/5-\-0~-l
------------l
------------l
------------l
------------l
------------l

Course
-----------------------------
-----------------------------
-----------------------------
-----------------------------
-3-3-33-5-5-55-0-0-00-0-0-00-
-3-3-33-5-5-55-0-0-00-0-0-00-
            

comments powered by Disqus
↑ Back to top | Fallacy Tabs for Fallen Angel. Lyrics for acoustic guitar and electric guitar. Tablatures and chords are parodies/interpretations of the original songs. You may use it for private study, scholarship, research or language learning purposes only