» » »

Faith No More Tabs (ver.1)

Artists:  A B C D E F G H I J K L M N O P Q R S T U V W X Y Z # 

Faith No More Tabs (ver.1)

Fallacy
Rating:
0/5 (0 votes)

Hard to play? Try these video lessons and learn fast.
                ~Fallacy~

Intro
-------------------------------------------------l
-------------------------------------------------l
-------7-----------7-----------7-----------7-----l
-----7---7-------7---7-------7---7-------7---7---l
---6-------6---6-------6---6-------6---6-------6-l
-5-----------5-----------4-----------4-----------l

Verse
-------------------------------------------------
-------------------------------------------------
-------7-----------7-----------7-----------7-----
-----7---7-------7---7-------7---7-------7---7---
---6-------6---6-------6---6-------6---6-------6-
-5-----------5-----------4-----------4-----------

Course
---------------------------l-7-7-7-77-7-7-7-7-7-77-7-7-l-6-6-6-66-6-6-6-6-6-66-6-6-l
---------------------------l---------------------------l---------------------------l
---------------------------l---------------------------l---------------------------l
-5-5-5-55-5-5-4-4-4-44-4-4-l-5-5-5-55-5-5-4-4-4-44-4-4-l-5-5-5-55-5-5-4-4-4-44-4-4-l
-5-5-5-55-5-5-4-4-4-44-4-4-l-5-5-5-55-5-5-4-4-4-44-4-4-l-5-5-5-55-5-5-4-4-4-44-4-4-l
-5-5-5-55-5-5-4-4-4-44-4-4-l-5-5-5-55-5-5-4-4-4-44-4-4-l-5-5-5-55-5-5-4-4-4-44-4-4-l

Verse
-------------------------------------------------
-------------------------------------------------
-------7-----------7-----------7-----------7-----
-----7---7-------7---7-------7---7-------7---7---
---6-------6---6-------6---6-------6---6-------6-
-5-----------5-----------4-----------4-----------

Course
---------------------------l-7-7-7-77-7-7-7-7-7-77-7-7-l-6-6-6-66-6-6-6-6-6-66-6-6-l
---------------------------l---------------------------l---------------------------l
---------------------------l---------------------------l---------------------------l
-5-5-5-55-5-5-4-4-4-44-4-4-l-5-5-5-55-5-5-4-4-4-44-4-4-l-5-5-5-55-5-5-4-4-4-44-4-4-l
-5-5-5-55-5-5-4-4-4-44-4-4-l-5-5-5-55-5-5-4-4-4-44-4-4-l-5-5-5-55-5-5-4-4-4-44-4-4-l
-5-5-5-55-5-5-4-4-4-44-4-4-l-5-5-5-55-5-5-4-4-4-44-4-4-l-5-5-5-55-5-5-4-4-4-44-4-4-l

Verse
-------------------------------------------------
-------------------------------------------------
-------7-----------7-----------7-----------7-----
-----7---7-------7---7-------7---7-------7---7---
---6-------6---6-------6---6-------6---6-------6-
-5-----------5-----------4-----------4-----------

Course
---------------------------l-7-7-7-77-7-7-7-7-7-77-7-7-l-6-6-6-66-6-6-6-6-6-66-6-6-l
---------------------------l---------------------------l---------------------------l
---------------------------l---------------------------l---------------------------l
-5-5-5-55-5-5-4-4-4-44-4-4-l-5-5-5-55-5-5-4-4-4-44-4-4-l-5-5-5-55-5-5-4-4-4-44-4-4-l
-5-5-5-55-5-5-4-4-4-44-4-4-l-5-5-5-55-5-5-4-4-4-44-4-4-l-5-5-5-55-5-5-4-4-4-44-4-4-l
-5-5-5-55-5-5-4-4-4-44-4-4-l-5-5-5-55-5-5-4-4-4-44-4-4-l-5-5-5-55-5-5-4-4-4-44-4-4-l

Interlude
-----------------------------------l
-----------------------------------l
-----------------------------------l
-5555555555555555-4444444444444444-l
-5555555555555555-4444444444444444-l
-5555555555555555-4444444444444444-l
pm... ....... ... .... ....... ...

Solo
-/5-7-9-17~-17-16-\4-7-9-16~-17-16-5~-l
--------------------------------------l
--------------------------------------l
--------------------------------------l
--------------------------------------l
--------------------------------------l

Course
---------------------------l-7-7-7-77-7-7-7-7-7-77-7-7-l-6-6-6-66-6-6-6-6-6-66-6-6-l
---------------------------l---------------------------l---------------------------l
---------------------------l---------------------------l---------------------------l
-5-5-5-55-5-5-4-4-4-44-4-4-l-5-5-5-55-5-5-4-4-4-44-4-4-l-5-5-5-55-5-5-4-4-4-44-4-4-l
-5-5-5-55-5-5-4-4-4-44-4-4-l-5-5-5-55-5-5-4-4-4-44-4-4-l-5-5-5-55-5-5-4-4-4-44-4-4-l
-5-5-5-55-5-5-4-4-4-44-4-4-l-5-5-5-55-5-5-4-4-4-44-4-4-l-5-5-5-55-5-5-4-4-4-44-4-4-l

Intro
-------------------------------------------------l
-------------------------------------------------l
-------7-----------7-----------7-----------7-----l
-----7---7-------7---7-------7---7-------7---7---l
---6-------6---6-------6---6-------6---6-------6-l
-5-----------5-----------4-----------4-----------l
            
Hard to play? Try these video lessons and learn fast. | Correct




comments powered by Disqus
↑ Back to top | Tablatures and chords are parodies/interpretations of the original songs. You may use it for private study, scholarship, research or language learning purposes only