» » »

Fallacy, Dinitrobenzene Tabs (ver.1)

Artists:  A B C D E F G H I J K L M N O P Q R S T U V W X Y Z # 

Dinitrobenzene Tabs (ver.1)

Fallacy Tabs
 Rating:
4/5 (4 votes)
Dinitrobenzene lessons Tabs too difficult? Try these video lessons and learn fast
                ~Fallacy~

Intro
-5-5-5-55-5-5-7-7-7-77-7-7-3-3-3-33-3-3-5-5-5-55-5-5-0-5-7-9-12~-l
-5-5-5-55-5-5-7-7-7-77-7-7-3-3-3-33-3-3-5-5-5-55-5-5-0-5-7-9-12~-l
pm................................................... .......

Course
-5-5-5-55-5-5-7-7-7-77-7-7-3-3-3-33-3-3-5-5-5-55-5-5-0-5-7-9-12~-l
-5-5-5-55-5-5-7-7-7-77-7-7-3-3-3-33-3-3-5-5-5-55-5-5-0-5-7-9-12~-l

Verse
------------------------------------------------------------x2--------------
-------------------------x4-------------------------------------------------
-------------------19-17----------------------17-15-------------------19-17-
-------------19-17----------------------17-15-------------------19-17-------
-19-17-19-17----------------17-15-17-15-------------19-17-19-17-------------

Course
-5-5-5-55-5-5-7-7-7-77-7-7-3-3-3-33-3-3-5-5-5-55-5-5-0-5-7-9-12~-l
-5-5-5-55-5-5-7-7-7-77-7-7-3-3-3-33-3-3-5-5-5-55-5-5-0-5-7-9-12~-l

Verse
------------------------------------------------------------x2--------------
-------------------------x4-------------------------------------------------
-------------------19-17----------------------17-15-------------------19-17-
-------------19-17----------------------17-15-------------------19-17-------
-19-17-19-17----------------17-15-17-15-------------19-17-19-17-------------

Course
-5-5-5-55-5-5-7-7-7-77-7-7-3-3-3-33-3-3-5-5-5-55-5-5-0-5-7-9-12~-l
-5-5-5-55-5-5-7-7-7-77-7-7-3-3-3-33-3-3-5-5-5-55-5-5-0-5-7-9-12~-l

Solo
-----------------------------------------l
-----------------------------------------l
-/17--/19--\15--/17-\-17-/-19-/-21-/-24~-l
-----------------------------------------l
-----------------------------------------l
-----------------------------------------l

Verse
------------------------------------------------------------x2--------------
-------------------------x4-------------------------------------------------
-------------------19-17----------------------17-15-------------------19-17-
-------------19-17----------------------17-15-------------------19-17-------
-19-17-19-17----------------17-15-17-15-------------19-17-19-17-------------

Course
-5-5-5-55-5-5-7-7-7-77-7-7-3-3-3-33-3-3-5-5-5-55-5-5-0-5-7-9-12~-l
-5-5-5-55-5-5-7-7-7-77-7-7-3-3-3-33-3-3-5-5-5-55-5-5-0-5-7-9-12~-l

Intro
-5-5-5-55-5-5-7-7-7-77-7-7-3-3-3-33-3-3-5-5-5-55-5-5-0-5-7-9-12~-l
-5-5-5-55-5-5-7-7-7-77-7-7-3-3-3-33-3-3-5-5-5-55-5-5-0-5-7-9-12~-l
pm................................................... .......
            
Submit corrections

comments powered by Disqus
↑ Back to top | Fallacy Tabs for Dinitrobenzene. Lyrics for acoustic guitar and electric guitar. Tablatures and chords are parodies/interpretations of the original songs. You may use it for private study, scholarship, research or language learning purposes only